Oops, an error
Loading. Please wait.

Decomiso Tab

18 views 1 this week
no commentswrite comment
1 2 3 4 5
3 more votes to show rating
add to favorites
×
Save as Personal and add changes to this tab that will be seen only by you. Learn more ›
×
You can save this tab as Personal to edit and correct it or add notes. All changes will be seen only by you. Learn more »
save as personal
new!
launch autoscroll
font size
0
reset
how to read this tab
guitar tuner
Autoscroll
slow
fast
+/-
esc
set tempo
stop
(1)
------------------------
------------------------
------------------------
-----------5-7----------
-0---0-----3-5----------
--303--303--------------

(2)
-------------------------------------------------
-------------------------------------------------
-------------------------------------------------
-----------------5-5-5-5-5-5-5-5-7-7-7-7-7-7-7-7-
-7-7-7-7-7-7-7-7-3-3-3-3-3-3-3-3-5-5-5-5-5-5-5-5-
-5-5-5-5-5-5-5-5---------------------------------

-------------------------------------------------
-------------------------------------------------
-------------------------------------------------
-----------------5-5-5-5-5-5-5-5-----------------
-7-7-7-7-7-7-7-7-3-3-3-3-3-3-3-3-5-5-5-5-5-5-5-5-
-5-5-5-5-5-5-5-5-----------------3-3-3-3-3-3-3-3-

80 kilos de la blanca y de la mejor
estaban pasando piola y un rati la descubrio
60 kilos mi capitan, informaron los agentes
buen trabajo asi se hace, esa es mi gente

(3)
-------------------------------------------------
-------------------------------------------------
-------------------------------------------------
-9-9------9-7------7-5-4-------------------------
-7-7------7-5------5-3-2-------------------------
-------------------------------------------------

muy bien, muy bien, muy bien
un gran golpe al narcotrafico

(1) X2

(2)
40 kilos la noticia al gobierno llego
que gran decomizo, llamen a los medios de comunicación
20 kilos en las noticias usted lo escucho
titulares en los diarios todo el mundo se entero

(3)
muy bien, muy bien, muy bien
un gran golpe al narcotrafico

miserables!!!

AQUI ESTE SOLO DE GUITARRA NO SE COMO SACARLO, PERO COMO
ES MUY ENREDADO, TAN SOLO TOQUEN CUALQUIER CUERDA DE LAS
MAS ALTAS

(2) (SOLO TOCA LOS 8 PRIMEROS RIFF TODO EL TIEMPO)

en las calles de mi pobla la pasta base es lo mejor
al final de esta larga historia siempre pierde el mas
hueon!!!

A MATAR A LOS PACOS CORRUPTOS, A COLGAR CUICOS DE MIERDA
A FUSILAR MILICOS TRAIDORES... ANARKIA CHUCHESUMADRE!!!
Suggest correction
Give kudos to tab author, rate the tab!
1 2 3 4 5
comments
print report bad tab
guest
Wanna post a correction for this tab? Suggest correction