Oops, an error
Loading. Please wait.

Detenidos Por Sospecha Bass

version 1
version 1

Whole song

7 views 1 this week
no commentswrite comment
1 2 3 4 5
3 more votes to show rating
add to favorites
launch autoscroll
font size
0
reset
guitar tuner
×
Best way to learn
"Detenidos Por Sospecha"
Autoscroll
slow
fast
+/-
esc
set tempo
stop
A)

G | -----------------|-------------|
D | -----------------|-------------|
A | ---00000--55--77-|---3-----5---|
E | -----------------|-----5-3-----|

b)

G | ------------------|
D | ------------------|
A | --------55--77----|
E | ----777-----------|

c)

G | ------------------|
D | ------------------|
A | --------66--88----|
E | ----888-----------|

A)
 DETENIDO EN LA ESQUINA
 ME APALEAN SIN MOTIVO
 Y ME SUBEN A LA YUTA

 ME APALEAN EN LA ENTRADA
 Y SE BURLAN EN MI CARA
 CON SU RISA DE BORRACHOS

 CONTINUA LA PALIZA
 Y ME MANDAN DE CABEZA
 A UNA CELDA EDIONDA A MIERDA

B)
 Y ME RESISTI
 Y LE CONTESTE
 Y AL GUEON LE GRITE
 SACA LA MANO CONCHETUMADRE

C)
SE TIRAN ENTRE TODOS
 ME ENCIERRAN CINCO DIAS
 SON LOS OFICIALES
 CORRUPTO PACO CULIAO

A)
 UN LIBRO DE MENTIRAS
ME OBLIGARON A FIRMAR
Y ROBARON MI DINERO
A)
 SE LO GUARDA EL TENIENTE
 PA SU DROGA Y COPETE
 Y ESO ES ORDEN Y PATRIA
A)
 DETENIDO POR SER POBRE
 DETENIDO POR SER POBRE
 DETENIDO POR SOSPECHA

 ME CAGO EN LA POLICIA
Suggest correction
Give kudos to tab author, rate the tab!
1 2 3 4 5
comments
print report bad tab
guest
You may want to rate the tab now too:
select rating
Wanna post a correction for this tab? Suggest correction