Oops, an error
Loading. Please wait.

Detenidos Por Sospecha Bass Tab

version 2
version 2

Whole song

11 views 1 this week
no commentswrite comment
1 2 3 4 5
3 more votes to show rating
add to favorites
launch autoscroll
font size
0
reset
guitar tuner
Autoscroll
slow
fast
+/-
esc
set tempo
stop
Help us to improve Ultimate-Guitar.com Take our survey!
×
Notas Base: Intro/Estrofa:  Re  Coro:  Si-Re-Mi/Do-Re#-Fa/La-Re-Mi

Introducción:

1|-------------------------------------------------------|
2|----------5-7-----------5-7-------------5-7------------|
3|------5-7-----------5-7-------------5-7-------3-----5--|
4|-5555----------5555------------5555-------------5-3----|

Estrofa 1:

1|----------------------------------------------------|
2|----------5-7------------5-7----------5-7-----------|  (x3)
3|------5-7------------5-7----------5-7------3-----5--|
4|-5555----------5555----------5555------------5-3----|


Coro: (parte la guitarra sola dos veces y luego entra el bajo)

1|-------------------------------------------|
2|-------------------------------------------|
3|------5-7--------5-7--------5-7-------5-7--|
4|-7777-------7777-------7777------7777------|

1|-------------------------------------------|
2|-------------------------------------------|
3|------6-8--------6-8--------6-8-------6-8--|
4|-8888-------8888-------8888------8888------|

1|-------------------------------------------|
2|-------------------------------------------|
3|------5-7--------5-7--------5-7-------5-7--|
4|-5555-------5555-------5555------5555------|

Introducción 2: (entra el bajo solo)

1|-------------------------------------------------|
2|----------5-7----------5-7----------5-7----------|
3|------5-7----------5-7----------5-7-----3-----5--|
4|-5555---------5555---------5555-----------5-3----|

Estrofa 2: (Lo Mismo que la primera estrofa)

1|--------------------------------------------------|
2|----------5-7----------5-7----------5-7-----------| (x3)
3|------5-7----------5-7----------5-7------3-----5--|
4|-5555---------5555---------5555------------5-3----|

Final: (guitarra sola y el bajo entra en la parte final)

1|----------------|
2|----------------|
3|---3-----5------|
4|-----5-3---3/---|

Letra:

 DETENIDO EN LA ESQUINA
 ME APALEAN SIN MOTIVO
 Y ME SUBEN A LA YUTA

 ME APALEAN EN LA ENTRADA
 Y SE BURLAN EN MI CARA
 CON SU RISA DE BORRACHOS

 CONTINUA LA PALIZA
 Y ME MANDAN DE CABEZA
 A UNA CELDA EDIONDA A MIERDA

 Y ME RESISTI
 Y LE CONTESTE
 Y AL GUEON LE GRITE
 SACA LA MANO CONCHETUMADRE

 SE TIRAN ENTRE TODOS
 ME ENCIERRAN CINCO DIAS
 SON LOS OFICIALES
 CORRUPTO PACO CULIAO

 UN LIBRO DE MENTIRAS
 ME OBLIGARON A FIRMAR
 Y ROBARON MI DINERO

 SE LO GUARDA EL TENIENTE
 PA SU DROGA Y COPETE
 Y ESO ES ORDEN Y PATRIA

 DETENIDO POR SER JOVEN
 DETENIDO POR SER POBRE
 DETENIDO POR SOSPECHA

 ME CAGO EN LA POLICIA

----
Modificado por Lokyllo_Blue
Suggest correction
Give kudos to tab author, rate the tab!
1 2 3 4 5
comments
print report bad tab
guest
You may want to rate the tab now too:
select rating
Wanna post a correction for this tab? Suggest correction