Oops, an error
Loading. Please wait.

El Origen De La Violencia Bass Tab

20 views 1 this week
no commentswrite comment
1 2 3 4 5
3 more votes to show rating
add to favorites
launch autoscroll
font size
0
reset
guitar tuner
×
Best way to learn
"El Origen De La Violencia"
Autoscroll
slow
fast
+/-
esc
set tempo
stop
intro:
G]-------------------------------------------------]
D]-------------------------------------------------]
A]----33-22-33-22-------------------------------]
E]--------------------------------------------------]

G]-----------------------------------------------------------------]
D]-----------------------------------------------------------------]
A]------------------------2---2---2----2-3----------------------]
E]----2-0-2-0-2-0-2-5----5---5---5---------------------------]

aki empieza la estrofa:
G]--------------------------------------------------------------------]
D]---------------------------------------------------------------------]
A]------------------------2---2---2----2-3--------------------------]
E]----2-0-2-0-2-0-2-5----5---5---5-------------------------------]
No se si llegue del cielo, o de debajo de la tierra?

después esto se repite varias veces?(fig 1)
G]-----------------------------------------------------------------]
D]-----------------------------------------------------------------]
A]-------7*--6*----------7*--6*--------------------------------]
E]------------------7--6------------------------------------------]  * dejar donando
Me enseñaron tanto golpe sin explicación?

después sigue asi:
G]-----------------------------------------------------------------]
D]-----------------------------------------------------------------]
A]------------------------2---2---2----2-3----------------------]
E]----2-0-2-0-2-0-2-5----5---5---5---------------------------]
La lluvia nuclear no es diferente a esta infernal vida?

aki se repite la figurilla 1 en la parte que dice: si tu estado es orden caos kero k venga?

Después viene la parte del punteo que no cacho bien como es, pero parece k sigue a la guitarra no mas?

parte final:

G]-----------------------------------------------------------------]
D]-----------------------------------------------------------------]
A]------------------------2---2---2----2-3----------------------]
E]----2-0-2-0-2-0-2-5----5---5---5---------------------------]
Si soy pobre y me marginan ¡¡¡¡ ken es el violento!!!!
si soy indio y me persiguien ¡¡¡ akaso k crees k siento!!!
yo soy un hombre distinto ¡¡¡ y no busko k tu me formes!!!
yo soy amigo del kaos ¡¡¡ por k es violento orden!!!
****************************************************************
No se si esta todo bien, pero ya es una base pa? guiarse
Suggest correction
Give kudos to tab author, rate the tab!
1 2 3 4 5
comments
print report bad tab
guest
You may want to rate the tab now too:
select rating
Wanna post a correction for this tab? Suggest correction