Oops, an error
Loading. Please wait.

El Pueblo Unido Tab

83 views 1 this week
no commentswrite comment
1 2 3 4 5
3 more votes to show rating
add to favorites
launch autoscroll
font size
0
reset
how to read this tab
guitar tuner
×
Best way to learn
"El Pueblo Unido"
Autoscroll
slow
fast
+/-
esc
set tempo
stop
(riff 1)
E-------------------------------
B-------------------------------
G------------------7----5-------
D--5---5----8--8---7----5--8-7--
A--5---5----8--8---5----3--8-7--
E--3---3----6--6-----------6-5--
De pie cantar que vamos a triunfar, 

riff 1
avanzan ya banderas de unidad, 

(riff 2)
E--------------------------------
B--------------------------------
G--8-----------------------------
D--8-------7--8--------7--------5
A--6-------7--8--------7--------5
E----------5--6--------5--------3
y tu vendrás marchando junto a mí, 

(riff 3)
E--------------------------
B--------------------------
G--5-----------------------
D--5-------5-------8---8---
A--3-------5-------8---8---
E----------3-------6---6---
y así verás tu canto y tu bandera, 

riff 2
florecer la luz de un rojo amanecer, 

riff 3
que anuncia ya la vida que vendrá. 

riff 1
De pie luchar que el pueblo va triunfar 

riff 1
será mejor la vida que vendrá, 

riff 2
a conquistar nuestra felicidad, 

riff 3
y en un clamor mil voces de combate se alzarán,

riff 2
dirán cancion de libertad 

riff 3
con desicion la patria vencerá. 

(riff 4)
E----------------------------------------------------------------
B----------------------------------------------------------------
G----------------------------------------------------------------
D-8----------------------6---------------------10--------------10
A-8----------------------6---------------------10--------------10
E-6----------------------4---------------------8---------------8-
Y ahora el pueblo que se alza en la lucha con voz de gigante gritando hacia delante.

(riff 5)
E--------------------------------------
B--------------------------------------
G--------------------------------------
D--5----5-----8-3--5----5-------8-3--(5)
A--5----5-----8-3--5----5-------8-3--(5)
E--3----3-----6-1--3----3-------6-1--(3)
¡El pueblo unido jamás será vencido !

riff 5
¡El pueblo unido jamás será vencido !

riff 1
La patria está forjando la unidad, 

riff 1
de norte a sur se movilizarán, 

riff 2
desde el salar ardiente mineral, 

riff 3
al bosque austral unidos en la lucha y el trabajo ira, 

riff 2
la patria cubrirá 

riff 3
su paso va anunciando el porvenir. 

riff 1
De pie cantar que el pueblo va a triunfar

riff 1
millones ya imponen la verdad, 

riff 2
de acero son ardiente batallón, 

riff 3
sus manos van llevando la justicia y la razón, 

riff 2
mujer con fuerza y con valor, 

riff 3
ya estas aquí junto al trabajador, 

riff 4
y ahora el pueblo que alza en la lucha con voz de gigante gritando adelante.

riff 5
¡El pueblo unido, jamás será vencido 

riff 5
el pueblo armado, jamás será aplastado !


-------------------------------------------------
* LA HISTORIA ES NUESTRA Y LA HACEN LOS PUEBLOS *
-------------------------------------------------
sALVADOR aLLENDE
Suggest correction
Give kudos to tab author, rate the tab!
1 2 3 4 5
comments
print report bad tab
guest
You may want to rate the tab now too:
select rating
Wanna post a correction for this tab? Suggest correction