Oops, an error
Loading. Please wait.

Esto Si Es Punk Rock Bass Tab

22 views 3 this week
no commentswrite comment
1 2 3 4 5
3 more votes to show rating
add to favorites
launch autoscroll
font size
0
reset
guitar tuner
Autoscroll
slow
fast
+/-
esc
set tempo
stop
Help us to improve Ultimate-Guitar.com Take our survey!
×
PUNK ROCK DE LOS MISERABLES

todo el rato es lo mismo es muy facil

intro
G--------------------------------------
D--------------------------------------
A-----------1-1-1-1-3-3-3-3--5-5-5-5---
E---3-3-3-3----------------------------

verso
G--------------------------------------
D--------------------------------------
A-----------1-1-1-1-3-3-3-3--5-5-5-5---
E---3-3-3-3----------------------------
  esto si....
coro
G--------------------------------------
D--------------------------------------
A-----------1-1-1-1-3-3-3-3--5-5-5-5---
E---3-3-3-3----------------------------
  sexo fultbol....
intermedio de guitarra
G--------------------------------------
D--------------------------------------
A-----------1-1-1-1-3-3-3-3--5-5-5-5---
E---3-3-3-3----------------------------

verso
G--------------------------------------
D--------------------------------------
A-----------1-1-1-1-3-3-3-3--5-5-5-5---
E---3-3-3-3----------------------------
 esto si
coro
G--------------------------------------
D--------------------------------------
A-----------1-1-1-1-3-3-3-3--5-5-5-5---
E---3-3-3-3----------------------------
sexo futbol.....

fin
GRACIAS A TO2 MIS ADMIRADORES 
CUALKIER WEA A MI MAIL
KRISTIAN_PUNKORE69@
CHAUUUUU
Suggest correction
Give kudos to tab author, rate the tab!
1 2 3 4 5
comments
print report bad tab
guest
You may want to rate the tab now too:
select rating
Wanna post a correction for this tab? Suggest correction