Oops, an error
Loading. Please wait.

Gritos De La Calle Tab

8 views 1 this week
no commentswrite comment
1 2 3 4 5
3 more votes to show rating
add to favorites
launch autoscroll
font size
0
reset
how to read this tab
guitar tuner
×
Best way to learn
"Gritos De La Calle"
Autoscroll
slow
fast
+/-
esc
set tempo
stop
riff 1:
--------------------------------------10-11-12---
-------------------------------------------------
-------------------------------------------------
------------------------------------------------- x4
-------------------------------------------------
-0---3---5---6--5--3--0---3---5------------------

[ch]Em[/ch]
resistiendo hasta la muerte
seguiremos siempre de pie

riff 2:
---------------------------------------------
---------------------------------------------
---------------------------------------------
---------------------------------------------
---------------------------------------------
-0---3---5---6--5--3--0---3---5---6--5--3--0-

[ch]Em[/ch]
si alguien quiere detenernos
nos tendra que hacer caer

riff 2

[ch]Bm[/ch]                  [ch]G[/ch]
resistiendo hasta el fin
[ch]D               [ch]A[/ch]         LA#[/ch]
hasta vencer o morir

riff 2

[ch]Em[/ch]
no hay muros ni cadenas
que encarcelen nuestra voz

riff 2

[ch]Em[/ch]
son los gritos de la calle
que piden revolucion

-------------------------------------------
-------------------------------------------
-------------------------------------------
-------------------------------------------
-----3---5---6--5--3------3---5---6--5-----
-5--------------------5-----------------5--

-------------------------------------------
-------------------------------------------
-------------------------------------------
-------------------------------------------
-----5---7---8--7--5------5---7---8--7-----
-7--------------------7-----------------7--

-------------------------------------------
-------------------------------------------
-------------------------------------------
-------------------------------------------
-----6---8---9--8--6------6---8---9--8-----
-8--------------------8-----------------8--

-----------------------
-----------------------
-----------------------
-----------------------
-4-4-4-4-4-4-4-4-4.----
-2-2-2-2-2-2-2-2-2.----

solo:
[ch]F#m            [ch]Bm[/ch]                      [ch]D[/ch]           LA[/ch]
--------------|-------------9-----10---|------------|------
--------------|-12~----12--------------|-12---10~---|-10~~-
--11bv~-%-|------------------------|------------|------ x2
--------------|------------------------|------------|------
--------------|------------------------|------------|------
--------------|------------------------|------------|------

riff 1
resistiendo hasta el fin
hasta vencer o morir

termina en Mim
Suggest correction
Give kudos to tab author, rate the tab!
1 2 3 4 5
comments
print report bad tab
guest
You may want to rate the tab now too:
select rating
Wanna post a correction for this tab? Suggest correction