Oops, an error
Loading. Please wait.

Hey Usted Bass

11 views 1 this week
no commentswrite comment
1 2 3 4 5
3 more votes to show rating
add to favorites
launch autoscroll
font size
0
reset
guitar tuner
×
Best way to learn
"Hey Usted"
Autoscroll
slow
fast
+/-
esc
set tempo
stop
Notas Base:  Intro/Estrofa/Coro: Si-Re-Mi-Sol

Introducción:

1|-------------------------|
2|-------------------------|   (x2)
3|-------5-5--7-7--10-10---|
4|-7-7---------------------|

Estrofa:

1|-------------------------|
2|-------------------------|   (x4)
3|-------5-5--7-7--10-10---|
4|-7-7---------------------|

Coro:

1|--------------------------------|
2|--------------------------------|   (x8)
3|------5555-7777--10-10-12-10----|
4|-7777------------------------7--|

(x2) Todo Esto Se repite De Nuevo?

Final:

1|------------------------------------|
2|------------------------------------|   (x4)
3|---5--5575--77-10-7--10-10-12-10----|
4|-77-7----------------------------7--|


---
Hecho por Lokyllo_Blue.
Suggest correction
Give kudos to tab author, rate the tab!
1 2 3 4 5
comments
print report bad tab
guest
You may want to rate the tab now too:
select rating
Wanna post a correction for this tab? Suggest correction