Oops, an error
Loading. Please wait.

Leo Catan Bass

42 views 1 this week
no commentswrite comment
1 2 3 4 5
3 more votes to show rating
add to favorites
×
Save as Personal and add changes to this tab that will be seen only by you. Learn more ›
×
You can save this tab as Personal to edit and correct it or add notes. All changes will be seen only by you. Learn more »
save as personal
new!
launch autoscroll
font size
0
reset
guitar tuner
Autoscroll
slow
fast
+/-
esc
set tempo
stop
la cancion empieza asi:

la intro es así y tanbien lo son las primeras 
G|----------------------------------------------22-------------22------|
D|-------22--55--2---------22--55--2--------33------3------33-------3--|
A|--3------------------3-----------------0--------------0--------------|
E|---------------------------------------------------------------------|

G|----------------------------------------------22-------------22------|
D|-------22--55--2---------22--55--2--------33------3------33-------3--|
A|--3------------------3-----------------0--------------0--------------|
E|---------------------------------------------------------------------|

G|------------------------------------------------------------|
D|------------------------------------------------------------|
A|---00--33--0-----22--55--2-----00--33--0-----22--55--2--3---|
E|-1------------3-------------1-------------3-----------------|

     esta es la primera estrofa         
G|----------------------------------------------22-------------22------|
D|-------22--55--2---------22--55--2--------33------3------33-------3--|
A|--3------------------3-----------------0--------------0--------------|
E|---------------------------------------------------------------------|

G|----------------------------------------------22-------------22------|
D|-------22--55--2---------22--55--2--------33------3------33-------3--|
A|--3------------------3-----------------0--------------0--------------|
E|---------------------------------------------------------------------|

G|------------------------------------------------------------|
D|------------------------------------------------------------|
A|---00--33--0-----22--55--2-----00--33--0-----22--55--2--3---|
E|-1------------3-------------1-------------3-----------------|


         aqui va la segunda
G|----------------------------------------------22-------------22------|
D|-------22--55--2---------22--55--2--------33------3------33-------3--|
A|--3------------------3-----------------0--------------0--------------|
E|---------------------------------------------------------------------|

G|----------------------------------------------22-------------22------|
D|-------22--55--2---------22--55--2--------33------3------33-------3--|
A|--3------------------3-----------------0--------------0--------------|
E|---------------------------------------------------------------------|

G|------------------------------------------------------------|
D|------------------------------------------------------------|
A|---00--33--0-----22--55--2-----00--33--0-----22--55--2--3---|
E|-1------------3-------------1-------------3-----------------|
despues de esta van estas notas


G|-----------------------------------------------------------------------------------|
D|---------------3333----------------3333----------------3333----------------33333-3-|
A|----------3333----------------3333----------------3333----------------3333---------|
E|-11111111------------11111111------------11111111------------11111111--------------|

aqui comienza el puntéo y la cancion sube un tono (como esta en la tablatura)
G|--------------------------------------------------------------|
D|-----44--77--4-------44--77--4--------------------------------|
A|--5---------------5-----------------55--99--5-----55--99--5---|
E|---------------------------------7-------------7--------------|

G|--------------------------------------------------------------|
D|-----44--77--4-------44--77--4--------------------------------|
A|--5---------------5-----------------55--99--5-----55--99--5---|
E|---------------------------------7-------------7--------------|


G|--------------------------------------------------------------|
D|--------------------------------------------------------------|
A|-----22--55--2------44--77--4------22--55--2-------44--77--4--|
E|--3--------------5--------------3--------------5--------------|

G|--------------------------------------------------------------|
D|-----44--77--4-------44--77--4--------------------------------|
A|--5---------------5-----------------55--99--5-----55--99--5---|
E|---------------------------------7-------------7--------------|

G|--------------------------------------------------------------|
D|-----44--77--4-------44--77--4--------------------------------|
A|--5---------------5-----------------55--99--5-----55--99--5---|
E|---------------------------------7-------------7--------------|


G|----------------------------------------------------------------|
D|----------------------------------------------------------------|
A|-----22--55--2------44--77--4------22--55--2-------44--77--4----|
E|--3--------------5--------------3--------------5----------------|
aqui de nuevo siguen estas notas

G|---------------------------------------------------------------------------------------------|
D|---------------------------------------------------------------------------------------------|
A|--55555555-------------55555555--------3333--55555555--------------55555555-------3333-55-3-5|
E|-----------3333--5555------------3333------------------3333--5555------------3333------------|

disfruten esta cancion que es una de mis favoritas y que ademas tiene buen ritmo
le mando un saludo a todo el octavo b del liceo las araucarias 
curacauutin chile
Suggest correction
Give kudos to tab author, rate the tab!
1 2 3 4 5
comments
print report bad tab
guest
Wanna post a correction for this tab? Suggest correction