Oops, an error
Loading. Please wait.

Los Dos Gallos Tab

48 views 1 this week
no commentswrite comment
1 2 3 4 5
3 more votes to show rating
add to favorites
launch autoscroll
font size
0
reset
how to read this tab
guitar tuner
×
Best way to learn
"Los Dos Gallos"
Autoscroll
slow
fast
+/-
esc
set tempo
stop
Este tab es más bien un complemento de los acordes
ke estan.

Intro (esto es lo que ke hace la guirtarra)

e|--------------| haces esto y de inmediato a rasgear.
B|--------------| Lam y Mi
G|--------------|
D|------3-4-3---|
A|----4-------4-|
E|--5-----------|

La parte del solo en el intermedio y la salida.

e|-12--12--12--12--12--12--10--10--10--10--10--10---|      
B|---10--10--10--10--10--10--10--10--10--10--10--10-|
G|--------------------------------------------------|        en el intermedio se hace una vez
D|--------------------------------------------------|      y en la salida dos veces.
A|--------------------------------------------------|   las notas con parentesis se hacen en la salida.
E|--------------------------------------------------|

e|-8---8---8---8---8---8---7-(7)-(7)--12--10--8-7-|
B|--10--10--10--10--10--10------------------------|
G|------------------------------------------------|
D|------------------------------------------------|
A|------------------------------------------------|
E|------------------------------------------------|

Estos son los riffs del bajo. Comienzan con el ragueo.

   [ch]Am[/ch]             [ch]E[/ch]          [ch]Dm[/ch] 
G|----6-6--9--|-----------|-----------|
D|--7---------|----6-6--9-|----4-4--7-|
A|------------|--7--------|--5--------|
E|------------|-----------|-----------|

hay ke hacerles unos pekeños arreglos. so seai flojo y sacalos.

chau.
Suggest correction
Give kudos to tab author, rate the tab!
1 2 3 4 5
comments
print report bad tab
guest
You may want to rate the tab now too:
select rating
Wanna post a correction for this tab? Suggest correction