Oops, an error
Loading. Please wait.

Mierda De Ciudad Bass

34 views 1 this week
no commentswrite comment
1 2 3 4 5
3 more votes to show rating
add to favorites
launch autoscroll
font size
0
reset
guitar tuner
Autoscroll
slow
fast
+/-
esc
set tempo
stop
Esta cancion es muy wena :) y aqui va:

INTRO:
1|----------7-4---------------------------7-4---------------|
2|--------------7----------7-4----------------7-------------|(x2)
3|-5-555-5---------------------7--5-555-5--------5-555-5--4-|
4|-----------------5-555-5----------------------------------|

MISERABLES!!!!!
1|--------------------------------------------------------------------------|
2|----45-7-4--------------------------45-7-4----45-7-4----------------------| 
3|-5-------------23-5-2-----45-7-4--5---------5-----------23-5-2-----45-7-4-|
4|------------3----------5------------------------------3---------5---------|

CORO:(todo este sabado me la voy a pasar
pegado en mi casa hasta rebentar 
siempre lo mismo MIERDA DE CIUDAD!!!) 
1|---------------------------------------------------------------------------------------------|
2|----45-7-4--------------------------45-7-4----45-7-4-------------------------45-7-4----------|
3|-5-------------23-5-2-----45-7-4--5---------5-----------23-5-2-----45-7-4--5----------23-5-2-|
4|------------3----------5------------------------------3---------5-------------------3--------|

1° ESTROFA:(En la calle tontos que saludar
noche estrella, una cacha en el portal 
hijos de puta teniendo que aguantar 
siempre lo mismo mierda de ciudad)
1|-------------------------------------------|
2|----45-7-4--------------------------45-7-4-| (x2)
3|-5-------------23-5-2-----45-7-4--5--------|
4|------------3----------5-------------------|

INTERMEDIO DE UNA ESTROFA Y OTRA:
1|------------------------------------------------------------------------------------|
2|----45-7-4--------------------------45-7-4----45-7-4-------------------------45-7-4-|
3|-5-------------23-5-2-----45-7-4--5---------5-----------23-5-2-----45-7-4--5--------|
4|------------3----------5------------------------------3---------5-------------------|

2° ESTROFA:(No hace falta que hayas podrido a nadie
ya sabemos que es un pasajero gratis 
no cambiará nunca esta situación 
siempre lo mismo mierda de cancion)
1|-------------------------------------------|
2|----45-7-4--------------------------45-7-4-| (x2)
3|-5-------------23-5-2-----45-7-4--5--------|
4|------------3----------5-------------------|

CORO:
1|---------------------------------------------------------------------------------------------|
2|----45-7-4--------------------------45-7-4----45-7-4-------------------------45-7-4----------|
3|-5-------------23-5-2-----45-7-4--5---------5-----------23-5-2-----45-7-4--5----------23-5-2-|
4|------------3----------5------------------------------3---------5-------------------3--------|

DESPUES DE ESTE CORO:
1|-------------------------------------------|
2|----45-7-4--------------------------45-7-4-| (x2)
3|-5-------------23-5-2-----45-7-4--5--------|
4|------------3----------5-------------------|

INTERMEDIO:
1|----------7-4---------------------------7-4---------------|
2|--------------7----------7-4----------------7-------------|(x2)
3|-5-555-5---------------------7--5-555-5--------5-555-5--4-|
4|-----------------5-555-5----------------------------------|

MISERABLES!!!!
1|--------------------------------------------------------------------------|
2|----45-7-4--------------------------45-7-4----45-7-4----------------------| 
3|-5-------------23-5-2-----45-7-4--5---------5-----------23-5-2-----45-7-4-|
4|------------3----------5------------------------------3---------5---------|

CORO (repetir el este coro 2 veces):
1|---------------------------------------------------------------------------------------------|
2|----45-7-4--------------------------45-7-4----45-7-4-------------------------45-7-4----------|
3|-5-------------23-5-2-----45-7-4--5---------5-----------23-5-2-----45-7-4--5----------23-5-2-|
4|------------3----------5------------------------------3---------5-------------------3--------|

FINAL:
1|-------------------------------------------|
2|----45-7-4--------------------------45-7-4-| (x2)
3|-5-------------23-5-2-----45-7-4--5--------|
4|------------3----------5-------------------|

Ya amigos este es el acorde pal bajo para sacarlo bien busquen
los tiempos mas adecuado en la cancion...
PABLO RODRIGUEZ - DARK 'MUSIK' AGE - (CREADO Y ADECUADO POR MI :D)
Suggest correction
Give kudos to tab author, rate the tab!
1 2 3 4 5
comments
print report bad tab
guest
Wanna post a correction for this tab? Suggest correction