Oops, an error
Loading. Please wait.

Miranos Tocar Bass

5 views 1 this week
no commentswrite comment
1 2 3 4 5
3 more votes to show rating
add to favorites
launch autoscroll
font size
0
reset
guitar tuner
×
Best way to learn
"Miranos Tocar"
Autoscroll
slow
fast
+/-
esc
set tempo
stop
Introducción:

G-----------------------------------------
D-----------------------------------------
A-----4--7-----7-7-7-7--------------------
E--5--------------------------------------

verso:
es importante tener en cuenta que esta canción
es un blues básico y cumple la regla de 1er grado,
4to y 5to, en este caso el 1er grado es A, el 4to grado
D y el 5to vendría siendo E, y todos son mayores,
por lo tanto sería asi:

1er grado:
G------------------------------------------
D----------------------4-5-4----------------
A----4-7-4--4-7-4--4-7-------7-5------------
E--5-------5------5-------------------------

4to grado           1er grado
G--------------------------------------------
D----4-7-4--4-7-4----------------------------
A--5-------5----------4-7-4--4-7-4-----------
E-------------------5-------5----------------

5to grado    4to grado 1er grado
G--------------------------------------------
D----6-9-6----4-7-4--------4-5-4-------------
A--7---------5----------4-7------7-5---------
E----------------------5---------------------

asi es casi toda la canción, hay una parte
donde cambia y se hacen los puros grados:

G-------------------------------------------
D-------------------------------------------
A------------5-5-555-5-----------------------
E--5-5-555-5-----------5-5-555-5-------------

G---------------------------------------------
D----------------------4-5-4------------------
A--7-7-7-7-5-5-5-5--4-7------7-5--------------
E------------------5--------------------------

despues vuelve al verso un par de veces y 
la canción termina asi

A--5---

Espero que la disfruten y si sacan temas de Mamma soul o
de Dracma, no olviden en escribirme ya tienen mi mail
(f_pereira17@
Suggest correction
Give kudos to tab author, rate the tab!
1 2 3 4 5
comments
print report bad tab
guest
You may want to rate the tab now too:
select rating
Wanna post a correction for this tab? Suggest correction