Oops, an error
Loading. Please wait.

N.n. Tab

48 views 3 this week
no commentswrite comment
1 2 3 4 5
3 more votes to show rating
add to favorites
launch autoscroll
font size
0
reset
how to read this tab
guitar tuner
Autoscroll
slow
fast
+/-
esc
set tempo
stop
Este es el punteo en la versión acústica
(programa: Dinamo - Canal ROCK&POP) 1997


E||-9-----------------------------------------------------------------------
B||-9-------12--11--9----------------7----------------------12--11--9-------
G||-9----9-------------8----6--8--9-----9--8--9--8--6----6-------------8----
D||-------------------------------------------------------------------------
A||-------------------------------------------------------------------------
e||-------------------------------------------------------------------------

----------------------------------------------------------------------------||
------------12--11--9-------------7----------------------12--11--9--9-9-9-9-||
---7~9---8-------------8----8--9-----9--8--9--8--6----6------------8-8-8-9--||
----------------------------------------------------------------------------||
----------------------------------------------------------------------------||
----------------------------------------------------------------------------||
Suggest correction
Give kudos to tab author, rate the tab!
1 2 3 4 5
comments
print report bad tab
guest
You may want to rate the tab now too:
select rating
Wanna post a correction for this tab? Suggest correction