Oops, an error
Loading. Please wait.

Obedeskamos Tab

7 views 1 this week
no commentswrite comment
1 2 3 4 5
3 more votes to show rating
add to favorites
launch autoscroll
font size
0
reset
how to read this tab
guitar tuner
×
Best way to learn
"Obedeskamos"
Autoscroll
slow
fast
+/-
esc
set tempo
stop
E|---------------------------------------------||
B|---------------------------------------------||
G|---------------------------------------------||
D|-10---9------------10---9---------10---9-----||
A|-8----7---10-------8----7---10----8----7---10||
e|----------8-----------------8--------------8-||

Y el cuarto
||----------------------------------||
||----------------------------------||
||----------------------------------||
||--10---9---12---------------------||
||--8----7---10---------------------||
||----------------------------------||

A)

 A                D
Ellos son dueños de la situación
 E            B
ellos imponen todo a su favor
 A           D
y tú imbécil te sientas a esperar
 E           B
que decidan tu vida encaminar
 A               D
son los ancianos que controlan el poder
 E            B
que te dicen lo que debes hacer
 A           D
que te dicen lo que debes pensar
 E                   B
¡ despierta imbécil, te tienes que rebelar!


coro:

G  C      D
Y que más da...obedeskamos
G        C      D
si total ya nos acostumbramos
G  C      D
y que más da...obedeskamos
G        C      D
si ya estamos amaestrados

A)
 A                D
Y nos mandan a la mili para luchar
E            B
por la patria o por los ricos, eso da igual
 A              D
ellos se quedan sentados y dirán
E                    B
que somos un ejemplo para la sociedad
 A               D
son los ancianos que controlan el poder
E                    B
en el gobierno y las empresas los puedes ver
 A              D
y ahí frustrado tú te quedarás
E              B
y los aplausos ellos se llevarán.


coro:

G  C      D
Y que más da...obedeskamos
G        C      D
si total ya nos acostumbramos
G  C      D
y que más da...obedeskamos
G        C      D
si ya estamos amaestrados


Solo:

E|-----------------------------------------
B|--10--9--10--12--10--9--10--12-----------
G|-------------------------------9---------
D|-----------------------------------------
A|-----------------------------------------
e|-----------------------------------------  X2

-------------------------------------------------------
-------------------------------------------------------
-------------------------------------------------------
---------------------4-----------6-----------4---------  x2
---------4------5--5---5----7--7---7----5--5---5-------
---5--5----5-------------------------------------------


 A  ... fin.....
Suggest correction
Give kudos to tab author, rate the tab!
1 2 3 4 5
comments
print report bad tab
guest
You may want to rate the tab now too:
select rating
Wanna post a correction for this tab? Suggest correction