Oops, an error
Loading. Please wait.

Paramar Bass Tab

23 views 3 this week
no commentswrite comment
1 2 3 4 5
3 more votes to show rating
add to favorites
launch autoscroll
font size
0
reset
guitar tuner
×
Best way to learn
"Paramar"
Autoscroll
slow
fast
+/-
esc
set tempo
stop
Intro:

G ------------------------------------------------   X1
D ------------------------------------------------
A --5555555555--555555---------333333-------------
E ---------------------555555---------333333------

G ------------------------------------------------  X2 
D ------------------------------------------------
A --555555--------333333--------------------------
E ---------555555--------333333-------------------

G ------------------------------------------------  X1
D ------------------------------------------------
A --555555--------3333333333333-------------------
E ---------555555---------------------------------


 Verso:

G -----------------------------------------------
D -----------------------------------------------
A --555555555-77777777-776555555555--------------
E -----------------------------------------------

G -----------------------------------------------
D -----------------------------------------------
A --------------------------------333333333333---
E --777777-555555-33333333-555555----------------

 Coro:

G ----------------------------------------------  X3
D ----------------------------------------------
A --555555--------333333------------------------
E ---------555555--------333333-----------------

G ----------------------------------------------  X1
D ----------------------------------------------
A --555555--------3333333333333-----------------
E ---------555555-------------------------------
 Intermedio (Amor,Amor):
 
G ----------------------------------------------  X3
D ----------------------------------------------
A ------2-3-5-----2-3-5-----4-5-7----4-5-7------
E --0-3-------0-3-------0-5-------0-5-----------

G ----------------------------------------------  X1
D ----------------------------------------------
A ------2-3-5-----2-3-5-------------------------
E --0-3-------0-3-------55555-77777777----------

 Solo De Guitarra:

G ---------------------------------------------  X3
D ---------------------------------------------
A --5555------3333------5555------3333---------
E -------5555------3333------5555------3333----
Suggest correction
Give kudos to tab author, rate the tab!
1 2 3 4 5
comments
print report bad tab
guest
You may want to rate the tab now too:
select rating
Wanna post a correction for this tab? Suggest correction