Oops, an error
Loading. Please wait.

Paramar Tab

71 views 3 this week
no commentswrite comment
1 2 3 4 5
3 more votes to show rating
add to favorites
launch autoscroll
font size
0
reset
how to read this tab
guitar tuner
×
Best way to learn
"Paramar"
Autoscroll
slow
fast
+/-
esc
set tempo
stop
  
  este tab. es el tercero q mando ojala les ayude...
  tambien estas notas se tocan con quintas (o al menos suenan mejor asi)
  y al principio las toca el bajo y luego entra la guitarra...
  
  Aqui va....

    D                      E                      
  Recuerdo cuando dije que este invierno
    D                 Bb      A
  seria menos frio que el anterior,
           G        A        
  y aqui estoy,congelandome.

  Aqui toca: C x 2

  (mismos acordes)  
  No es facil para mi hablar de esto
  sin manosear las mismas palabras de amor
  que se entregan a cualquiera.

  CORO...
       D      A
  Paramar,paramar
         C          G
  debes tratar de poco entregar,
      D      A
  paramar,paramar
      C             G
  tu identidad debes falsear
     D      A
  paramar,paramar
     C              G
  siendo estupido seras feliz,
     D       A
  paramar,paramar
         C                  C                  
  debes evitar soñar,debes olvidar soñar.


  (mismos acordes)
  Recuerdo cuando pense que en el mundo
  solo podria hacerme feliz alguna vez
  alguien como tu,nadie mas que tu.

  Caminando en el frio me pregunto
  si no ha nacido alguna chiquilla que no sepa amar
  y quiera inventar una nueva forma paramar.

  CORO..  
 
   F#                   G
  Amor, amor, donde oi esa palabra antes
    F# 
  rehice por ti mi horario
        G
  y compre mas calendarios
      F#m
  me pase un video en tres dimensiones
      G
  con un final feliz
    F#m           
  trate de inyectarle mi viejo optimismo
      G              A        
  pero ese que resulto aun era yo listo Paramar

  SOLO...
 (en este punteo pueden tocar cada espacio por dos veces.
   pero suena mejor con un)
 
 |-------------------------------------|
 |-------------------------------------|
 |--/9--7--9--11--9--11--12--11--12--9-|
 |-------------------------------------|
 |-------------------------------------|
 |-------------------------------------|

 |---------------------------------------------|
 |---------------------------------------------| 
 |--/9--7--9--11--9--11--14--12--11--12--11--9-|
 |---------------------------------------------|
 |---------------------------------------------|
 |---------------------------------------------|

  En esta parte sigue tocando este punteo y luego sigue esto...

 |---------------------------------|----------------------------------------------|
 |---------------------------------|----------------------------------------------|
 |--/9--9--9--9--9--14--14--14--14-|-11-12-11-12-11-12-11-12-11-14-14-14-14-14-14-|
 |---------------------------------|----------------------------------------------|
 |---------------------------------|----------------------------------------------|
 |---------------------------------|----------------------------------------------|

 |--15--15--14--14-------15--15----------|
 |-----------------15-15--------14-14--12|
 |---------------------------------------|
 |---------------------------------------|
 |---------------------------------------|
 |---------------------------------------|

  (mismos acordes)
  Nunca pense que justo que este invierno
  seria el mas frio que visto pasar
  yo no sirvo paramar.

  y eso es todo ojala les ayude, cualquier duda o amenaza o lo q sea
a mi correo Godca_h2@ ....Un saludo para Amor Daisy  ¡¡¡TE AMO!!!
Suggest correction
Give kudos to tab author, rate the tab!
1 2 3 4 5
comments
print report bad tab
guest
You may want to rate the tab now too:
select rating
Wanna post a correction for this tab? Suggest correction