Oops, an error
Loading. Please wait.

Pisagua Bass Tab

20 views 1 this week
no commentswrite comment
1 2 3 4 5
3 more votes to show rating
add to favorites
launch autoscroll
font size
0
reset
guitar tuner
Autoscroll
slow
fast
+/-
esc
set tempo
stop
Help us to improve Ultimate-Guitar.com Take our survey!
×
bueno ehh
esta es mi primera transcripcion q hago aqui en la
pagina y ojala q este buena o sino me mandan un correo
pa decir las fallas ya aqui ta...

Intro

G-------------------------------------|
D-------------------------------------|
A---~5-5-5555-5-----------------------|
E------------------~2-2-2222-2--------|

G-------------------------------------------|
D-------------------------------------------|
A---~5-5------------------------------------| / X3
E--------3h4-~5-5/2----~2-2-3h4-~5-5--------|/

Verso(1)
        Con el puño.........(pisagua)
G-------------------------------------------|
D-------------------------------------------|
A---~5-5------------------------------------|
E--------3h4-~5-5/2----~2-2-3h4-~5-5--------|
        Por las calles......(pisagua)
G-------------------------------------------|
D-------------------------------------------|
A---~5-5------------------------------------|
E--------3h4-~5-5/2----~2-2-3h4-~5-5--------|
        nadie............estaba........
G-------------------------------------------|
D-------------------------------------------|
A-------------------------------------------|
E---~3-3-3h4-5h4-3---~5-5-3h4-55-4----------|
        su familia..........nunca......
G-------------------------------------------|
D-------------------------------------------|
A-------------------------------------------|
E---~3-3-3h4-5h4-3---~5-5-3h4-55-4----------|

Verso(2)
        desde el cuartel.....(pisagua)
G-------------------------------------------|
D-------------------------------------------|
A---~5-5------------------------------------|
E--------3h4-~5-5/2----~2-2-3h4-~5-5--------|
        una orden............(pisagua)
G-------------------------------------------|
D-------------------------------------------|
A---~5-5------------------------------------|
E--------3h4-~5-5/2----~2-2-3h4-~5-5--------|
        debe ser............y su cuerpo...
G-------------------------------------------|
D-------------------------------------------|
A-------------------------------------------|
E---~3-3-3h4-5h4-3---~5-5-3h4-55-4----------|
        los soldados.........con su sangre..
G-------------------------------------------|
D-------------------------------------------|
A-------------------------------------------|
E---~3-3-3h4-5h4-3---~5-5-3h4-55-4----------|

Interludio
G--------------------------------------------|
D--------------------------------------------|
A---~5-5----------------~5-5-----------------|
E--------~3-3-~0-0-~5-5------~3-3-~0-0-~5-5--|

Verso(3)
        18 años despues.....(pisagua)
G-------------------------------------------|
D-------------------------------------------|
A---~5-5------------------------------------|
E--------3h4-~5-5/2----~2-2-3h4-~5-5--------|
        de angustia.........(pisagua)
G-------------------------------------------|
D-------------------------------------------|
A---~5-5------------------------------------|
E--------3h4-~5-5/2----~2-2-3h4-~5-5--------|
        encontraron.........mutilado
G-------------------------------------------|
D-------------------------------------------|
A-------------------------------------------|
E---~3-3-3h4-5h4-3---~5-5-3h4-55-4----------|
        su familia.........piden juicio
G-------------------------------------------|
D-------------------------------------------|
A-------------------------------------------|
E---~3-3-3h4-5h4-3---~5-5-3h4-55-4----------|

Verso(4)
        encarselado........ehhhhhhhh
G-------------------------------------------|
D-------------------------------------------|
A---~5-5------------------------------------|
E--------3h4-~5-5/2----~2-2-3h4-~5-5--------|
        y ya cago.........(pisagua)
G-------------------------------------------|
D-------------------------------------------|
A---~5-5------------------------------------|
E--------3h4-~5-5/2----~2-2-3h4-~5-5--------|
        tiene el .........de quitar.....
G-------------------------------------------|
D-------------------------------------------|
A-------------------------------------------|
E---~3-3-3h4-5h4-3---~5-5-3h4-55-4----------|
        por su orden......y por la espalda..
G-------------------------------------------|
D-------------------------------------------|
A-------------------------------------------|
E---~3-3-3h4-5h4-3---~5-5-3h4-55-4----------|

Interludio
G--------------------------|
D--------------------------|
A---~5-5-------------------| /X4
E--------~3-3-~0-0-~5-5----|/

Fin
G------|
D------|
A--~5--|
E------|

ya eso es ojala q este buena y
ademas un saludo pa los xangos de chillan city
Suggest correction
Give kudos to tab author, rate the tab!
1 2 3 4 5
comments
print report bad tab
guest
You may want to rate the tab now too:
select rating
Wanna post a correction for this tab? Suggest correction