Oops, an error
Loading. Please wait.

Pisagua Chords

version 2
version 2

Whole song

26 views 1 this week
no commentswrite comment
1 2 3 4 5
3 more votes to show rating
add to favorites
launch autoscroll
font size
0
reset
transpose
0
reset
display chords
guitar tuner
Autoscroll
slow
fast
+/-
esc
set tempo
stop
Help us to improve Ultimate-Guitar.com Take our survey!
×
Aka le dejo la versión original del tema ,
 incluido el arpegio intermedio que se manda el guitarrista.
Si le ponen color suena weno weno ¡

Intro: D-F#  (con silvido)

D                             F#
Con el puño en alto lo vieron pasar
D                            F#
por las calles de nuestra ciudad
G
nadie supo su destino
A
estaba desaparecido
G
su familia y su hijoLA
nunca mas lo vieron vivo


Desde el cuartel general
Una orden se escucho dar
debe ser fusilado
su cuerpo enterrado
los soldados se quedaron
con su sangre en las manos


ARPEGIO INTERMEDIO

            D              G
     e---2-----0------2----3-----2-----0-----------
     B-----3-----3------3----0-----0-----0---------
     G-------2-----2-----------0-----0-------------
     D---0-----------------------------------------
     A---------------------------------------------
     E---------------------3-----------------------

             E#                A
     e------------------------------5---------------
     b-----------8---------------------5------------
     g-------9-------9-----------6--------6---------
     d----9-------------9-----7---------------7-----
     A-7-------------------7------------------------
     E----------------------------------------------

Diez y ocho años después
de angustia y de dolor
encontraron su cuerpo
mutilado y desecho
su familia y su hijo
piden juicio y castigo

En su mercedes va el general
gozando de su impunidad
con el peso en su conciencia
de Chilenos y Chilenas
por su orden apresado
y por la espalda asesinados.

"Sigue el arpegio intermedio y luego esto."


            D              G
     e---2-----3------2----3-----2-----0-----------
     B-----3-----3------3----0-----0-----0---------
     G-------2-----2-----------0-----0-------------
     D---0-----------------------------------------
     A---------------------------------------------
     E---------------------3-----------------------

       "En esta parte las guitarras se separan,
    La segunda sigue con los acordes re-sol-mi#-sol
    Y la otra con este punteo simple."


       E#       A   D          G           E#              D
     e-------------------------------------------------------------
     b-----7--8--10---8---7--5-------------------------------------
     g--9-----------------------7-------7--------------------------
     d-----------------------------(9)-----9--7--5-(7*9*7)-4--2-0-
     A-------------------------------------------------------------
     E-------------------------------------------------------------


Cualquier duda no dejen de escribir.
Crimarce@ es passport (msn) porsiacaso.
Suggest correction
Give kudos to tab author, rate the tab!
1 2 3 4 5
comments
print report bad tab
guest
You may want to rate the tab now too:
select rating
Wanna post a correction for this tab? Suggest correction