Oops, an error
Loading. Please wait.

Por Favor Bass Tab

8 views 1 this week
no commentswrite comment
1 2 3 4 5
3 more votes to show rating
add to favorites
launch autoscroll
font size
0
reset
guitar tuner
×
Best way to learn
"Por Favor"
Autoscroll
slow
fast
+/-
esc
set tempo
stop
intro:
3)-----5-7---------3-3-3--4-4-4---------------------
4)--5-------5-3---3---------------------------------

verso 1:
2)-------3-----------3------------2-----------------
3)-5--5-5-5----5--5-5-5-----3--3-3-3-----------3----
4)---------------------------------------5--5-5-5---

b) todo es tan dificil asi......
3)------------------------------------------------------3-3-3--4---
4)-3--3--3-3-3-3---3-5--5--5-5-5-5---5-6--6--6-6-6-6--6------------

verso 2:
b)todo es tan difivil  asi......
coro: no me sigas , no me llames...
2)-----7-7---------5-5-------3-3--------5-5--------
3)-5-5-------3-3-3-------1-1------3-3-3------------

verso 3:
b) oyeme preciosa no hay mas.......
coro: no me sigas  ,  no ......

intermedio:
2)-------7----------5-----------7-------------------------
3)----5-7--------3-5---------5-7----------3-3-3--4-4-4----
4)-5---------5-3--------3-5---------5-3--3----------------

* punteo  y  bajo sigue  como en versos.
b) todo es tan dificil ......
coro: no me sigas  ,  no ........
2)-------7-----------------------------------
3)----5-7-----------3-3-3--4-4-4--5----------
4)-5---------5-3--3--------------------------

hasta  la vista  socios......viva el roooooock!!!!!!!!!
camila  ers la persona  ideal para  tener familia 
  pero  para  pasarlo bien  ers tu anabelle!...ja-ja-ja
Suggest correction
Give kudos to tab author, rate the tab!
1 2 3 4 5
comments
print report bad tab
guest
You may want to rate the tab now too:
select rating
Wanna post a correction for this tab? Suggest correction