Oops, an error
Loading. Please wait.

Por Favor Tab

28 views 1 this week
no commentswrite comment
1 2 3 4 5
3 more votes to show rating
add to favorites
×
Save as Personal and add changes to this tab that will be seen only by you. Learn more ›
×
You can save this tab as Personal to edit and correct it or add notes. All changes will be seen only by you. Learn more »
save as personal
new!
launch autoscroll
font size
0
reset
how to read this tab
guitar tuner
Autoscroll
slow
fast
+/-
esc
set tempo
stop
Bueno aki teni ke eskuchar la cancion pa cachar los tiempos

Intro:
 
|---------|------------------|
|---------|------------------|                  
|---------|---555-666--------|
|--7---5--|---555-666--------|
|--7---5--|---333-444--------|
|--5---3--|------------------|


Verso:
La otra guitarra toka los acordes: Rem - Do - La 
|---------------|
|---------------|
|---7---5-------| 2 veces!
|---7---5---7---|
|---5---3---7---|
|-----------5---|
Otra vez...


Verso2:
Aki las 2 guitarras tokan lo mismo
|------------------------|
|------------------------|
|---------------555--666-|
|-5---7----8----555--666-|
|-5---7----8----333--444-|
|-3---5----6-------------|
Todo es muy dificil...


Verso:
Los acordes: Rem - Do - La
|---------------|
|---------------|
|---7---5-------| 2 veces!
|---7---5---7---|
|---5---3---7---|
|-----------5---|
Tu con migo....


Verso2:
Los 2 tokan =
|------------------------|
|------------------------|
|---------------555--666-|
|-5---7----8----555--666-|
|-5---7----8----333--444-|
|-3---5----6-------------|
Todo es muy dificil...

Coro:
Los 2 tokan
 Tokar 4 veces el coro.
|----------------|
|----------------|
|-7--------------|
|-7---10---8-----|
|-5---10---8-----|
|-----8----6-----|
No me sigas ....


Verso:
Acordes: Rem - Do - La
|----------------|
|----------------|
|---7---5--------| 2 veces!
|---7---5---7----|
|---5---3---7----|
|-----------5----|
Tu tan fuerte...


Verso2:
Los 2
|------------------------|
|------------------------|
|---------------555--666-|
|-5---7----8----555--666-|
|-5---7----8----333--444-|
|-3---5----6-------------|
Oyeme preciosa...


Coro: Tokar 4 veces el coro.
Los 2
|----------------|
|----------------|
|-7--------------|
|-7---10---8-----|
|-5---10---8-----|
|-----8----6-----|
No me sigas ....


Intro:
uno no ma' 
|-----------------|------------------|
|-----------------|------------------|                  
|-----------------|---555-666--------|
|--7---5---7---5--|---555-666--------|
|--7---5---5---5--|---333-444--------|
|--5---3---5---3--|------------------|
Por Favor...


Solo:
La otra guitarra toka Rem - Do - La
|----------------------------------------------|
|----------------------------------------------|
|----------------------------------------------|
|----------------------------------------------|
|-5--8--12--10--7---12-12-12-13-12--10--8--7---|                          
|----------------------------------------------|
Solo:
[ch]Dm - [ch]C[/ch] - LA[/ch]
|-------------------------------------------|
|-------------------------------------------|
|-------------------------------------------|
|-------------------------------------------|
|-5--8--12--10--7---12-12-12-13-12--10--8---|
|-------------------------------------------|


Verso2:
Los 2 tokan lo mismo
|------------------------|
|------------------------|
|---------------555--666-|
|-5---7----8----555--666-|
|-5---7----8----333--444-|
|-3---5----6-------------|
Todo es tan dificil...


Coro:
Los 2
 Tokar 10 veces el coro.
|----------------|
|----------------|
|-7--------------|
|-7---10---8-----|
|-5---10---8-----|
|-----8----6-----|
No me sigas ....

Final:
1 no ma'
|---------|-------------------|
|---------|-------------------|                  
|---------|---555-666---7-----|
|--7---5--|---555-666---7-----|
|--7---5--|---333-444---5-----|
|--5---3--|-------------------|
Por Favor...

Correcciones al mail nico_harcorepunk77@
      
FIN
Suggest correction
Give kudos to tab author, rate the tab!
1 2 3 4 5
comments
print report bad tab
guest
Wanna post a correction for this tab? Suggest correction