Oops, an error
Loading. Please wait.

Progreso Bass Tab

16 views 1 this week
no commentswrite comment
1 2 3 4 5
3 more votes to show rating
add to favorites
launch autoscroll
font size
0
reset
guitar tuner
×
Best way to learn
"Progreso"
Autoscroll
slow
fast
+/-
esc
set tempo
stop
aki les va una version para bajo de progreso

~= se deja sonando la nota

intro:

G/-----------------------/
D/-----------------------/ x4
A/-----------------3-2---/
E/-5--5-3-2-0~-----------/

verso:
no cabe nada mas en mi cabeza...

G/---------------------------/
D/---------------------------/ x4
A/----------------------3-2--/
E/-5--5-3-2-0-0-0-0-0-0------/

coro:
que es eso PROGRESO!...

G/----------------------------/
D/----------------------------/
A/--------3----------------3~-/
E/-5--3-5---5-5-3-4-5--3-5----/

verso:
El que llamas progreso rompió tu cráneo...

G/---------------------------/
D/---------------------------/ x4
A/----------------------3-2--/
E/-5--5-3-2-0-0-0-0-0-0------/

coro:
que es eso PROGRESO!...

G/----------------------------/
D/----------------------------/
A/--------3----------------3~-/
E/-5--3-5---5-5-3-4-5--3-5----/


tanta muerte por unos pesos eso es mentira y no progreso!

G/------------------/
D/------------------/
A/------------------/
E/-5--5-3-2--00~----/


skuxen la kncion para encontrar bn los tiempos
kualkier duda a mi mail lucho_ffc2306@hot...
un salu2 pa` el 2ºA del sta. juliana y al domini0 SIAT
aguante cIrCuLo ViCiOs0!!!!!
Suggest correction
Give kudos to tab author, rate the tab!
1 2 3 4 5
comments
print report bad tab
guest
You may want to rate the tab now too:
select rating
Wanna post a correction for this tab? Suggest correction