Oops, an error
Loading. Please wait.

Progreso Tab

38 views 3 this week
no commentswrite comment
1 2 3 4 5
3 more votes to show rating
add to favorites
×
Save as Personal and add changes to this tab that will be seen only by you. Learn more ›
×
You can save this tab as Personal to edit and correct it or add notes. All changes will be seen only by you. Learn more »
save as personal
new!
launch autoscroll
font size
0
reset
how to read this tab
guitar tuner
Autoscroll
slow
fast
+/-
esc
set tempo
stop
intro(riff 1)x4
e-------------------------
B-------------------------
G-------------------------.
D--7--7--5--4--2---2--5-4-.
A--7--7--5--4--2---2--3-2-
E--5--5--3--2--0---0------

A
No cabe nada más en mi cabeza, 
                 C B 
dejé las cartas sobre la mesa, 
A
me retiré despacio sin hacer ruido, 

no era nada...pero pudo haber sido.


A
El ritmo infertil no se detiene 
                       C B
este es un ritmo ciego que se nos viene
A
¿entiendes de lo que te estoy hablando?

Vale más cien en la mano, que cien volando.

guitarra 1
B-------------------------
G--10-10-10-13-10-10-10---
D---9--9--9--9--9--9--9---
A-------------------------
E-------------------------

guitarra 2
B--------------------------
G--------------------------
D--7--7--5--4--2---2--5-4--
A--7--7--5--4--2---2--3-2--
E--5--5--3--2--0---0-------

¿qué es eso? PROGRESO
¡a otro perro con ese hueso!

e-----------------------------------------------------
B-----------------------------------------------------
G-----------------------------------------------------
D--7--7--5--4--2---2--5-4-----------------------------
A--7--7--5--4--2---2--3-2-----------------------------
E--5--5--3--2--0---0----------------------------------

A
El que llamas progreso rompió tu cráneo,
                C B
te hacen parte del rebaño, 
A
prefiero llegar tarde te lo repito, 

cuando miro sus cuerpos y escucho gritos.

A
Tirado en el pasto, mirando al cielo 
                     C B
con mi tortuga y mi sucio pelo, 

A
' no es la muerte la que mata yo se bien eso', 
                       C B
el que tanto mata es el progreso.

guitarra 1
B-------------------------
G--10-10-10-13-10-10-10---
D---9--9--9--9--9--9--9---
A-------------------------
E-------------------------

guitarra 2
B--------------------------
G--------------------------
D--7--7--5--4--2---2--5-4--
A--7--7--5--4--2---2--3-2--
E--5--5--3--2--0---0-------

¿qué es eso? PROGRESO

¡a otro perro con ese hueso!


A
Tanta muerte por unos pesos, eso es mentira y
no progreso.

A577x
Cx355
Bx233
Suggest correction
Give kudos to tab author, rate the tab!
1 2 3 4 5
comments
print report bad tab
guest
Wanna post a correction for this tab? Suggest correction