Oops, an error
Loading. Please wait.

Que Tonteria Tab

63 views 1 this week
no commentswrite comment
1 2 3 4 5
3 more votes to show rating
add to favorites
launch autoscroll
font size
0
reset
how to read this tab
guitar tuner
Autoscroll
slow
fast
+/-
esc
set tempo
stop
intro x2 
la guitarra marca el acorde en
   D       D     G       A
bajo
G-------------------------------
D---4------4--------------------
A--5-5-4--5-5-4---2-------4-----
E----------------3-33-4--5-55-4-

riff 1 x2
E---------------------------------
B---------------------------------
G--7-7-7-7------------------------
D--7-7-7-7----5-5----7-7----------
A--5-5-5-5----5-5----7-7----------
E-------------3-3----5-5----------

(kon ritmo ska)
D
Yo no te veo en esta situación
          G             A
convirtiendo tu vida en una perdición
D
yo que es un refugio que tontería
G
prefiero estar en casa
A
es algo sencillo.

riff 1 x2

D
Estar en casa no es tan malo
G
después de todo
A
no me siento tan raro
D
a veces estoy que me reviento
G
recuerdo en un momento
A
que aun me quedan años

riff 1
aun me quedan años!
que tontería!

A
Nada resulta de maravilla
G                         A
tratando de pelear con la policía
D
ser presa fácil en un fin de semana
G
pelea bien porque
           A   
aun no estoy tan muerto.

riff 1 (kon ritmo punk) x2

D
Estar en casa no es tan jodido
G                        A
recuerdo a un amigo que aun sigue perdido
A
es muy fácil conformarse con ser menos
G                   A
recuerda algo aun te quedan años.

riff 1 (kon ritmo punk) x2

riff 1
Que tontería! (x 3)


-------------------------------------------------------------
* SER JOVEN Y NO SER REVOLUCIONARIO ES UNA CONTRADICCION *
------------------------------------------------------------
cHE GUEVARA
Suggest correction
Give kudos to tab author, rate the tab!
1 2 3 4 5
comments
print report bad tab
guest
Wanna post a correction for this tab? Suggest correction