Oops, an error
Loading. Please wait.

Sarri, Sarri Bass

44 views 1 this week
no commentswrite comment
1 2 3 4 5
3 more votes to show rating
add to favorites
launch autoscroll
font size
0
reset
guitar tuner
×
Best way to learn
"Sarri, Sarri"
Autoscroll
slow
fast
+/-
esc
set tempo
stop
intro:
2)------------------------------------
3)-5-4--2----5-4--2----5-4--2---------
4)-------------------------------0----

versos:
2)-7-7-----7---------------------------------7-7-----7----
3)-----7-7--7----5-5-----5-----7-7-----7---------7-7--7---
4)-------------------5-5--5--------7-7--7-----------------

coros:
     (2x)                                           (2x)
2)-7-7---7-7----/--------------/--------------/-7-7---7-7------
3)----7-7---7-7-/-7-7---7-7----/-5-5---5-5----/----7-7---7-7---
4)--------------/----7-7---7-7-/----5-5---5-5-/---------------- 
                      (2x)           (2x)
intro:
verso:
 coro:
intro:
 coro:
intro:
Suggest correction
Give kudos to tab author, rate the tab!
1 2 3 4 5
comments
print report bad tab
guest
You may want to rate the tab now too:
select rating
Wanna post a correction for this tab? Suggest correction