Oops, an error
Loading. Please wait.

Skada Vez Peor Bass

version 1
version 1

Whole song

40 views 3 this week
no commentswrite comment
1 2 3 4 5
3 more votes to show rating
add to favorites
launch autoscroll
font size
0
reset
guitar tuner
×
Best way to learn
"Skada Vez Peor"
Autoscroll
slow
fast
+/-
esc
set tempo
stop
La canción solo ocupa las triadas de las notas de la guitarra

INTRO:
    E                 G
 G-----------------------------
 D-----------------------------
 A----------------------5-3-2--
 E--0-0-3-0-00-3-0-00-3------3-

 VERSO:Vamos a decir...
   E            A            E            B
 G----------------------------------------------------
 D----66-99-66------------------66-99-66--------------
 A-77--------------44-77-44--77--------------66-99-66-
 E--------------55------------------------77----------

 Coro:Pues la vida... y, La cabeza...
   G        A        D
 G-------------------------------44-66-77-
 D ---------------------44-55-77----------
 A-------------------55-------------------
 E-33333333-55555555----------------------

 Nada cambia... y, No se como...
   G        A        D
 G------------------------------------
 D------------------------------------ 
 A-------------------5555555555555555-
 E-33333333-55555555------------------

 Parte reggae: Skada vez peor...
   G        A        D        D
 G ------------------------------------
 D------------------------4-7------4-7-
 A------2-5------4-7-5555-----5555-----
 E-3333-----5555-----------------------

 FINAL:
   E           A            E           B
 G--------------------------------------------------
 D---6-9---6-9----------------6-9---6-9-------------
 A-7-----7-------4-7---4-7--7-----7-------6-9---6-9-
 E-------------5-----5------------------7-----7-----

 Eso es todo espero ke les sirva
Suggest correction
Give kudos to tab author, rate the tab!
1 2 3 4 5
comments
print report bad tab
guest
You may want to rate the tab now too:
select rating
Wanna post a correction for this tab? Suggest correction