Oops, an error
Loading. Please wait.

Skada Vez Peor Bass

version 2
version 2

Whole song

12 views 1 this week
no commentswrite comment
1 2 3 4 5
3 more votes to show rating
add to favorites
launch autoscroll
font size
0
reset
guitar tuner
×
Best way to learn
"Skada Vez Peor"
Autoscroll
slow
fast
+/-
esc
set tempo
stop
intro:
2)----------9-7-----------------
3)--------------9-7-------------
4)-0-0--0-3----------0-0--0-3-/-0--
    (7x)                (6x)

verso 1 :
2)-----6-6--9-9--6-6----------------------------6-6--9-9--6-6-----------------------
3)-7-7------------------4--7-7----4--7-7----7-7------------------6--9-9----6--9-9---
4)--------------------5---------5------------------------------7---------7----------

b) pues la vida en ..........
2)--------------------------------------------4-4--5-5--6-6--7-7--6-6--5-5--4-4--
3)-----2-2--5-5--2-2------4-4--7-7--4-4---5-5------------------------------------
4)-3-3----------------5-5--------------------------------------------------------

verso 2:
despues  viene:

3)------------5-----5--------------------5(dejar esta nota sonando)-----
4)-3-----5-----------------3------5-------------------------------------

b) la vida sigue......
verso 3: tenemos d todo para estar en paz.....
*ahora viene esto:
2)------------7------4-7----4-7-----/
3)---5-------7-----5------5---------/   bis
4)-3--3----5------------------------/

b) la vida sigue......
final:
2)---6--9-9-/----------/---6--9-9-/----------/---6--9-9-/----------/---6--9-9-/-----
3)-7--------/---4--7-7-/-7--------/---6--9-9-/-7--------/---4--7-7-/-7--------/-----
4)----------/-5--------/----------/-7--------/----------/-5--------/----------/-7---
    (2x)       (2x)        (2x)      (2x)        (2x)      (2x)       (2x)

a mi parecer   ..suena  bastante bien  modestamente!
Suggest correction
Give kudos to tab author, rate the tab!
1 2 3 4 5
comments
print report bad tab
guest
You may want to rate the tab now too:
select rating
Wanna post a correction for this tab? Suggest correction