Oops, an error
Loading. Please wait.

Skada Vez Peor Tab

version 2
version 2

Whole song

26 views 1 this week
no commentswrite comment
1 2 3 4 5
3 more votes to show rating
add to favorites
launch autoscroll
font size
0
reset
how to read this tab
guitar tuner
×
Best way to learn
"Skada Vez Peor"
Autoscroll
slow
fast
+/-
esc
set tempo
stop
INTRO      x2     

E-----0-0-0--0-----------------------
B---3--0-3-3--0----------------------
G------------------------------------
D------------------------------------
A------------------------------------
E------------------------------------


solo

E--------------------------------------------------------
B------------------------------------7------------7------
G----------4-------------6---7-7-7-7---7--7-7-7-7---7----
D--5-5-5-5---5---7-7-7-7---------------------------------
A--------------------------------------------------------
E--------------------------------------------------------


esta cancion esta dedicada a todos mis conocidos y 
familiares...aguante los peloteros de chile.

arriba palestina!!
Suggest correction
Give kudos to tab author, rate the tab!
1 2 3 4 5
comments
print report bad tab
guest
You may want to rate the tab now too:
select rating
Wanna post a correction for this tab? Suggest correction