Oops, an error
Loading. Please wait.

Skada Vez Peor Bass Tab

version 3
version 3

Whole song

4 views 1 this week
no commentswrite comment
1 2 3 4 5
3 more votes to show rating
add to favorites
launch autoscroll
font size
0
reset
guitar tuner
×
Best way to learn
"Skada Vez Peor"
Autoscroll
slow
fast
+/-
esc
set tempo
stop
en el intro le bajo hace esto

 G---------------------------------------------------
 D--------------------------------------------------
 A------------------------------------5-3-2-----------------------
 E-0-0-3-00-00-0-3-00-00-0-3-00-00-0-3-- --3-0-0-3-00-0-0-3-00-0-

Estrofa:
vamos a decir lo ke hay ke decir
por ke este ritmo ska no miente no sabe mentir

G----------------------------------------------------
D----66-99-66------------------66-99-66--------------
A-77--------------4-77-4--77--------------6-99-6-
E--------------5------------------------7----------

 Coro: (se repite dos veses en forma alternada kada parrafo)
pues la vida en este estado me parece peligrosa

G-------------------------------44-55-66-77
D ---------------------44-55-77------------
A-------------------55---------------------
E-33333333-55555555------------------------

 Nada cambia todo sigue skada vez peor la kosa

G------------------------------------
D------------------------------------
A-------------------5555555555555555-
E-33333333-55555555------------------

Luego entra otra estrofa:
Escucha bien no hay tiempo ke perder es toda una vida la ke hay ke recorrer
G----------------------------------------------------
D----66-99-66------------------66-99-66--------------
A-77--------------4-77-4--77--------------6-99-6-
E--------------5------------------------7----------

Entra un puntero y el bajo lo acompaña asi:
G----------
D----------    2 veses
A-----5-5--
E-3-5------

Otra ves entra el coro peor kon otras frases:
(se repite dos veses en forma alternada kada parrafo)
La vida sigue su kurso esto skada ves peor

G-------------------------------44-55-66-77
D ---------------------44-55-77------------
A-------------------55---------------------
E-33333333-55555555------------------------

Y no kieren ni un segundo ke esto kambie de kolor

G------------------------------------
D------------------------------------
A-------------------5555555555555555-
E-33333333-55555555------------------


Entra la estrofa otra ves:
Tenemos de todo para estar en paz no necesitamos de tu vigilada libertad
G----------------------------------------------------
D----66-99-66------------------66-99-66--------------
A-77--------------4-77-4--77--------------6-99-6-
E--------------5------------------------7----------


Parte reggae: Skada vez peor...

G --------------------
D---6-9------6-9------
A--7----4-7-7----6-9--
E------5--------7-----

el koro:(se repite dos veses en forma alternada kada parrafo)
La vida sigue su kurso esto skada ves peor

G-------------------------------44-55-66-77
D ---------------------44-55-77------------
A-------------------55---------------------
E-33333333-55555555------------------------

Y no kieren ni un segundo ke esto kambie de kolor

G------------------------------------
D------------------------------------
A-------------------5555555555555555-
E-33333333-55555555------------------

 El bajo del final kambia hace esto ahora
G--------------------------------------------------
D---6-9---6-9----------------6-9---6-9-------------
A-7-----7-------4-7---4-7--7-----7-------6-9---6-9-
E-------------5-----5------------------7-----7-----

Ahí esta una excelente rolilla de los miserables
 espero ke les sirva de ayuda y pues si tienen
un comentario o duda pueden agregarme al msn
Seco_skate_anarkista@
Suggest correction
Give kudos to tab author, rate the tab!
1 2 3 4 5
comments
print report bad tab
guest
You may want to rate the tab now too:
select rating
Wanna post a correction for this tab? Suggest correction