Oops, an error
Loading. Please wait.

Tolerancia Cero Tab

19 views 1 this week
no commentswrite comment
1 2 3 4 5
3 more votes to show rating
add to favorites
×
Save as Personal and add changes to this tab that will be seen only by you. Learn more ›
×
You can save this tab as Personal to edit and correct it or add notes. All changes will be seen only by you. Learn more »
save as personal
new!
launch autoscroll
font size
0
reset
how to read this tab
guitar tuner
Autoscroll
slow
fast
+/-
esc
set tempo
stop
intro:
2 veces
-----------------------------
-----------------------------
---------9-7------------9-7--
-----------------------------
---------7-5--0---------7-5--
-0-0-0-0--------0-0-0-0------

entonces toca:
----------------
----------------
----------------
-5-5-5--5-5-5-5-
-3-3-3--3-3-3-3-
-3-3-3--3-3-3-3-

-------------------------
-------------------------
---------9-7---------9-7-
-------------------------
-0-0-0-0-7-5-0-0-0-0-7-5-
-------------------------

2 veces
-----------------------------
-----------------------------
---------9-7------------9-7--
-----------------------------
---------7-5--0---------7-5--
-0-0-0-0--------0-0-0-0------

guit. 1 (x4) al segundo tiempo entra guit. 2 y hace lo mismo
-----------------------------
-----------------------------
-----------------------------
-----------------------------
-2-x-x-x-5-8-----------------
-0-x-x-x-3-6-----------------

verso: guit. 1 - 2
'tolerancia cero....'
---------------
---------------
---------------
---------------
-2-2-2-2--5--8-
-0-0-0-0--3--6-

en el interludio guitarra 1 hace unos sonidos raros

guitarra 2 toca esto: 4 veces
-----------------------------
-----------------------------
-----------------------------
-----------------------------
---------0-3-----------------
-2-2-2-2---------------------

luego el bajo hace el riff del verso
guitarras solo marcan un mi5

luego verso: 2 veces

'tolerancia cero... que no quede nadie...
-----------------------------
-----------------------------
---------9-7------------9-7--
-----------------------------
---------7-5--0---------7-5--
-0-0-0-0--------0-0-0-0------

'Santiago limpio y decente, esa es la consigna...
----------------
----------------
----------------
-5-5-5--5-5-5-5-
-3-3-3--3-3-3-3-
-3-3-3--3-3-3-3-

'una ciudad modelo que avanza y se moderniza...
-------------------------
-------------------------
---------9-7---------9-7-
-------------------------
-0-0-0-0-7-5-0-0-0-0-7-5-
-------------------------

'muchos policias.. y paz ciudadana...
-----------------------------
-----------------------------
---------9-7------------9-7--
-----------------------------
---------7-5--0---------7-5--
-0-0-0-0--------0-0-0-0------

'barran con la delincuencia...
-----------------------------
-----------------------------
---------9-7------------9-7--
-----------------------------
---------7-5--0---------7-5--
-0-0-0-0--------0-0-0-0------

                 mi5
'barran, barran, barran!!!!

que letra!!!!!!!
consiganla es genial!!!!

viva chile mierda!!!!!
Suggest correction
Give kudos to tab author, rate the tab!
1 2 3 4 5
comments
print report bad tab
guest
Wanna post a correction for this tab? Suggest correction