Oops, an error
Loading. Please wait.

Tu Alma Mia Bass

34 views 1 this week
no commentswrite comment
1 2 3 4 5
3 more votes to show rating
add to favorites
×
Save as Personal and add changes to this tab that will be seen only by you. Learn more ›
×
You can save this tab as Personal to edit and correct it or add notes. All changes will be seen only by you. Learn more »
save as personal
new!
launch autoscroll
font size
0
reset
guitar tuner
Autoscroll
slow
fast
+/-
esc
set tempo
stop

Introducción (0:21):

G-----------------------------------------------
D-----------------------------------------------
A-7-7-(6)7-7-(6)7-7-(6)7-7-(6)7-7-(6)-7---------
E--7-7----7-7----7-7----7-7----7-7---7-7--------
repetir las veces que sea necesario (ojo, los (6)son
variaciones que Amapola hace en vivo pero no salen 
en la version original)

después (0:34)

G----------------------------------------
D-5-5------9-9---------------------------
A--5-5-5-5--9-9-7--------6-7-------------
E-------5-5-------9-7-5-7----------------

Verso (0:43)

'si me equivocara otra vez'...
se repite la introducción 2 veces

Coro (1:17)

'Si Adelita se fuera con otro'...

G------------------------------------------
D----------5-5--5-9-9--------9-9-------------
A-7-7-7-7---5------9-9-7-7-7--9-9-7---6-7----
E--7-7-7-7--------------7-7--------5-7-------
se repite 2 veces
luego '¡SI ME EQUIVOCARA OTRA VEZ!'...

G--------------------------------------------
D---------------------------------------------
A--7777777-5555555--------------------------
E--------------------7777777-5555555-------

El resto es muy obvio solo hay que escuchar la canción,
es muy fácil.
Suggest correction
Give kudos to tab author, rate the tab!
1 2 3 4 5
comments
print report bad tab
guest
Wanna post a correction for this tab? Suggest correction