Oops, an error
Loading. Please wait.

Tu Alma Mia Tab

151 views 1 this week
no commentswrite comment
1 2 3 4 5
3 more votes to show rating
add to favorites
×
Save as Personal and add changes to this tab that will be seen only by you. Learn more ›
×
You can save this tab as Personal to edit and correct it or add notes. All changes will be seen only by you. Learn more »
save as personal
new!
launch autoscroll
font size
0
reset
how to read this tab
guitar tuner
Autoscroll
slow
fast
+/-
esc
set tempo
stop
INTRO


e--7-7-7-7-3-5-5/7---7-7-7-7-7-3-5-5/7--------
B--8-8-8-8-5-7-7/8---8-8-8-8-8-5-7-7/8--------
G---------------------------------------------
D---------------------------------------------
A---------------------------------------------
E---------------------------------------------


e---8-10--8-7-8-7-5--7-8-7-5-7-5-3------------
B--10-10-10-8-8-8-7--8-8-8-7-7-7-5------------
G---------------------------------------------
D---------------------------------------------
A---------------------------------------------
E---------------------------------------------


e--2-3-3/5---2-3-2h3p2-0--0-------------------
B--0-------0-0------------0-------------------
G-------------------------0-------------------
D-------------------------2-------------------
A-------------------------2-------------------
E-------------------------0-------------------


Se repite la INTRO en todos los versos,
solamente que al final se le agregan
2 notas


e--2-3-3/5---2-3-2h3p2-0--0-------------------
B--0-------0-0------------0---0---------------
G-------------------------0------0------------
D-------------------------2-------------------
A-------------------------2-------------------
E-------------------------0-------------------


Rasgeo ska

Em
Si me equivocará otra vez

si me enamorará de ti otra vez
Am
la alegria de en este dia
G
cuando puse tu alma mia
Bm                    Em
la ultima piedra sobre mi corazón

(El mismo rasgeo con las mismas notas)

si me equivocará otra vez
si me olvidará de ti otra vez
no te olvides vida mia
de posar con alegria
la ultima piedra sobre mi corazón


      E
Si Adelita se fuera con otro
         A                   B
la seguiria por tierra y por mar
                             E
si es por mar en un buque de guerra
           B                 E
si es por tierra en un tren militar
     E
Si Adelita quisiera ser mi esposa
     A                  B
si Adelita ya fuera mi mujer
                            E
le compraria un vestido de seda
       B                     E
la llevaria en un jeep al cuartel


(Aqui son las mismas notas del verso anterior
 pero para que suenen pesadas toquenlas con
 quintas y distorcion)

Si me equivocará otra vez
si me enamorará de ti otra vez
la alegria de este dia
cuando puse tu alma mia
la ultima piedra sobre mi corazón
si me equivocará otra vez
si me olvidará de ti otra vez
no te olvides vida mia
de posar con alegria
la ultima piedra sobre mi corazón
Si me equivocará otra vez
si me enamorará de ti otra vez
la alegria de este dia
cuando puse tu alma mia
la ultima piedra sobre mi corazón

(lo mismo que los versos anteriores
pero vayan de a poco metiendole distorcion
hasta dejar la cagá)

si me equivocará otra vez
si me olvidará de cuanto te ame
la alegria en este dia
cuando puse tu alma mia
la ultima piedra sobre aquel cajón
si me enamorará otra vez
si me olvidará de ti otra vez
la algeria en este dia
cuando puse tu alma mia
la ultima piedra sobre mi corazón
si enamorara otra vez
si me olvidará de ti otra vez
la alegria en este dia
cuando puse tu alma mia
la ultima piedra sobre mi corazón
si me enamorara otra vez
si me olvidará de ti otra vez
la alegria en este dia
cuando puse tu alma mia
la ultima piedra sobre mi corazón
si enamorara otra vez
si me olvidara de ti otra vez
la algria en este dia
cuando puse tu alma mia
la ultima piedra sobre mi corazón
si enamorara otra vez
si me olvidara de ti otra vez
la algria en este dia
cuando puse tu alma mia
la ultima piedra sobre mi corazón

Eso seria.. todo un clasico este tema
alguna sugerencia o algo ... angelus495@
Suggest correction
Give kudos to tab author, rate the tab!
1 2 3 4 5
comments
print report bad tab
guest
Wanna post a correction for this tab? Suggest correction