Oops, an error
Loading. Please wait.

Un Cielo Azul Bass Tab

32 views 1 this week
no commentswrite comment
1 2 3 4 5
3 more votes to show rating
add to favorites
launch autoscroll
font size
0
reset
guitar tuner
Autoscroll
slow
fast
+/-
esc
set tempo
stop
Help us to improve Ultimate-Guitar.com Take our survey!
×
dedicada a xa-ye-che

intro
G]------------------------------------------------------------
D]----------00-4-7-4----------------------------------------
A]-------5----------------------------------------------------
E]-----------------------5-55-3-33-5-55--------------------


Verso:
G]------------------------------------------------------------
D]----------00-4-7-4----------------------------------------
A]-------5----------------------------------------------------
E]-----------------------5-55-3-33-5-55--------------------
Entro el amor por mi ventana?

Solo cambia aki:
G]----------------------------------------------------------
D]----------------------------------------------------------
A]--------------------5-55------------------------5*------
E]-------3-33-5-55---------7-77---3-33-5-55----------- *dejar sonando
Kizas cuantos mas?

Ahora empieza lo bueno?

G]-------------------------------------------------------------------
D]-------------------------------------------------------------------
A]-------555-----------------555-----------------------------------
E]-------------555-333-555------333-555------------------------
Entro el esmog por mi ventana?

Sigue siempre marcando las notas, es mejor hacerlo con pua, pa? seguir mejor los palm-mute de la guitarra?

Un saludo pa' el mejor curso del universo.... 3° B 2004
en especial pa la super sonora de tercero B... boby, lencho, nico, chepo,gustavoska(en el bajo), y el del teclado k todavia no lo encontramos...

' la muerte esta tan segura de vencer, k nos da toda una vida de ventaja...'

dedidcada a nico sk8
Suggest correction
Give kudos to tab author, rate the tab!
1 2 3 4 5
comments
print report bad tab
guest
You may want to rate the tab now too:
select rating
Wanna post a correction for this tab? Suggest correction