Oops, an error
Loading. Please wait.

Xenofobia Tab

version 1
version 1

Whole song

23 views 3 this week
no commentswrite comment
1 2 3 4 5
3 more votes to show rating
add to favorites
×
Save as Personal and add changes to this tab that will be seen only by you. Learn more ›
×
You can save this tab as Personal to edit and correct it or add notes. All changes will be seen only by you. Learn more »
save as personal
new!
launch autoscroll
font size
0
reset
how to read this tab
guitar tuner
Autoscroll
slow
fast
+/-
esc
set tempo
stop
[RIFF0]
e|--------------------------------------------------|
B|--------------------------------------------------|
G|--------------------------------------------------|
D|--------------------------------------------------|
A|-3--1------3--1------3--1------3--1----------1--3-|
E|-------1---------1---------1---------1--1--3------|
   (En las últimas 4 notas de este punteo tengo dudas,
   pero las demás 100% seguro)

[RIFF1]
   G  F  G   G# G  F  G
e|----------------------|
B|----------------------|
G|----------------------|
D|-5--3--5---6--5--3--5-|
A|-5--3--5---6--5--3--5-|
E|-3--1--3---4--3--1--3-|

[RIFF2]
   C        D# 
e|-----------------------|
B|-----------------------|
G|-5-5-5-5--8-8-8-8-8----|
D|-5-5-5-5--8-8-8-8-8----|
A|-3-3-3-3--6-6-6-6-6----|
E|-----------------------|

LETRA Y ESTRUCTURA:

INTRO:
[RIFF0] x1 (Solo la guitarra)
[RIFF0] x4
[RIFF1] x4

[RIFF1]
Es tu estúpido nacionalismo
[RIFF1]
que más parece ser snobismo
[RIFF1]
banderas y fronteras no son motivo
[RIFF1]
para sembrar racismo y fanatismo

CORO:
[RIFF2]
No más discriminación
[RIFF1]
por tu nacionalidad
[RIFF2]
No más discriminación
[RIFF1]
por tu condición social

[RIFF1]x2

[RIFF1]
Si mi color de piel no es el mismo
[RIFF1]
si mi acento al tuyo no es parecido
[RIFF1]
eso no es suficiente no merezco castigo 
[RIFF1]
la xenofobia entre hermanos es fraticidio

CORO:
[RIFF2]
No más discriminación
[RIFF1]
por tu religión 
[RIFF2]
No más discriminación
[RIFF1]
por tu condición sexual 

[RIFF1]x4

(Va solo el bajo con [RIFF1])
No más racismos ni tontos patriotismos
en el tercer mundo no queremos nazismo

[RIFF1]
no queremos himnos no queremos banderas
[RIFF1]
solo una patria grande sin cadenas ni fronteras

CORO:
[RIFF2]
No más discriminación
[RIFF1]
por tu nacionalidad
[RIFF2]
No más discriminación
[RIFF1]
por tu condición social

[RIFF1]x4
[RIFF0]x1 (El bajo va solo)

[RIFF0]
No más nazismo 
[RIFF0]
No más racismo
[RIFF0]
No más facismo
Suggest correction
Give kudos to tab author, rate the tab!
1 2 3 4 5
comments
print report bad tab
guest
Wanna post a correction for this tab? Suggest correction