Oops, an error
Loading. Please wait.

Zu Atrapatu Arte Bass Tab

19 views 1 this week
no commentswrite comment
1 2 3 4 5
3 more votes to show rating
add to favorites
launch autoscroll
font size
0
reset
guitar tuner
Autoscroll
slow
fast
+/-
esc
set tempo
stop
Help us to improve Ultimate-Guitar.com Take our survey!
×
Este cover original de Kortatu (gran banda por supuesto) es una de las mejores canciones del disco, es muy parecido al original de kortatu, pero el de Miserables
es mas bajo.

Mis conociemientos en el idioma Vasco son praktikamente nulos, 
pero el grupo español Boikot, tiene esta misma cancion con el nombre de 'Nos Quieren Detener', pero dudo ke esa
sea la exacta traduccion, ya ke 'Zu' significa 'y'


Intro
					
G|------------------------------------------------------
D|------------------------------------------------------
A|--------2--2-1------2--2-1------2--2-1-----2--2-1-----
E|----3-5---------3-5---------3-5---------3-5-----------

Inicio

G|------------------------------------------
D|------------------------------------------       (x2)
A|-------------88888887-5555555-7777777-----
E|--77777777--------------------------------


Verso
(En la calle...)					

G|--------------------------------------   (x3) 
D|--------------------------------------           
A|--------77-55-------------------------         
E|-----55--------55---------------------         

Puente

G|---------------------------------------   (x1) 
D|----------------4-3--------------------              (del final no estoy muy seguro porke es un poco rapido,
A|--------77-55------5-------------------                 a mi me suena bien asi)
E|-----55---------------5----------------         

Coro: 
(Igual kel Inicio se toca x2)

Luego se repite el intro, inicio x2, verso x3, puente x1, luego se toca del intro x1, coro x1, intro x1

El cuerpo seria algo asi

Intro (x1)
Inicio (x2)
Verso (x3)
Puente (x1)
Coro (x2)

Intro (x1)
Inicio (x2)
Verso (x3)
Puente (x1)
Coro (x2)

Intro (x1)
Coro (x2)
Intro (x1)
Suggest correction
Give kudos to tab author, rate the tab!
1 2 3 4 5
comments
print report bad tab
guest
You may want to rate the tab now too:
select rating
Wanna post a correction for this tab? Suggest correction