Oops, an error
Loading. Please wait.

Humareda Chords

16 views 1 this week
no commentswrite comment
1 2 3 4 5
3 more votes to show rating
add to favorites
launch autoscroll
font size
0
reset
transpose
0
reset
simplify chords
display chords
guitar tuner
Autoscroll
slow
fast
+/-
esc
set tempo
stop
Help us to improve Ultimate-Guitar.com Take our survey!
×
*************************************************
*                LAS PISADAS                    *
*-----------------------------------------------*
* Los Mojarras                                  *
* Humareda                                      *
*                        ---->  Jitosa@  *
*-----------------------------------------------*
*             DEL ROCK EN ESPAÑOL               *
*************************************************

      Una realidad que solo Los Mojarras sacaron 
      a la luz, por eso recomiendo que escuchen
      todas sus canciones y mas aun si eres 
      del Agustino, La Victoria o El Callao,
      'Que viva el Perú Carajo'.

Acordes: 

   D(RE)    Dsus4(REsus4)   Bm(Bm)   G(G)   A(A)   
   E|-2-|     E|-3-|        E|-2-|    E|-3-|   E|-0-| 
   B|-3-|     B|-3-|        B|-3-|    B|-3-|   B|-2-|
   D|-2-|     D|-2-|        D|-4-|    D|-4-|   D|-2-|
   G|-0-|     G|-0-|        G|-4-|    G|-5-|   G|-2-|
   A|-0-|     A|-0-|        A|-2-|    A|-5-|   A|-0-|
   E|-0-|     E|-0-|        E|-2-|    E|-3-|   E|-0-|
  

    Intro: 

            D  Dsus4  RE   REsus4

        1 ||--2-----3------2------3-------------------------
        2 ||--3-----3------3------3-------------------------
        3 ||--2-----2------2------2-------------------------
        4 ||------------------------------------------------
        5 ||------------------------------------------------
        6 ||------------------------------------------------

            No  va   cambiar,
                                
        1 ||------------------------------------------------
        2 ||-----------3------------------------------------
        3 ||-------2---------2------------------------------
        4 ||--0---------------------------------------------
        5 ||------------------------------------------------
        6 ||------------------------------------------------
 
              te  va   dañar
                                
        1 ||------------------------------------------------
        2 ||-----------3------------------------------------
        3 ||-------2---------0------------------------------
        4 ||--0---------------------------------------------
        5 ||------------------------------------------------
        6 ||------------------------------------------------
       
              de  esas no cambian, no cambian

        1 ||--------------2-----------------2---------------
        2 ||-----------3--3-----2--2--------3---------------
        3 ||-------2------2-----2--2--------2---------------
        4 ||--0-----------------2--2------------------------
        5 ||------------------------------------------------
        6 ||------------------------------------------------

      
      D  Dsus4  RE   REsus4

                                                            D  Dsus4  
     A) He bebido del moliente de la parada al que llaman cariñosamente, calientito

                                               D  Dsus4
       He bebido tambien, del wisky el mas fino y esquisito

                                            D  Dsus4
       He gozado de una mujer, de una mujer de alta alcurnia

                                          D  Dsus4
       y tambien señores de una recien bajadita de la puna

                                                      D  Dsus4
       se lo que es dormir, se lo que es dormir en un departamento full equipo

                                          D  Dsus4
      y lo que es tiritar entre cuatro esteras mal paradas

                                    D  Dsus4
      que mas parecieran, haber sido, crusificadas


   Coro:

              D                 Bm
      Y es que, vivo conjugando la virtud y el pecado 

      G                A
      vivo del futuro, y tambien del pasado

           D                 Bm
      me gusta disfrutar de paris y la parada
 
        G                     A                 D      
      entre hombres sudando y marilyn, mi enamorada.


                                                       D  Dsus4
     B) se lo que es tener, se lo que es tener los bolsillos llenos de cobre

                                          D  Dsus4
      y de pobre lo que es digerir, los propios intestinos

      
      si mi destino ha sido terminar

                                     D  Dsus4
      lanzandome desde el onceavo piso del centro civico

                                    D  Dsus4
      y es que mis dos yo, siempre estan en conflicto

                      D                                    Dsus4
      Mi yo materialista, mi yo materialista, y mi yo idealista

                                      D                      Dsus4
      van discutiendo sobre mi muerte, mientras mi yo idealista

                                    D
      quiere disfrutar de una caida libre, mi yo materialista

                                    D  Dsus4
      saca cuentas cuanto costara, mi entierro

       
 Coro:


              D                 Bm
      Y es que, vivo conjugando la virtud y el pecado 

      G                A
      vivo del futuro, y tambien del pasado

           D                 Bm
      me gusta disfrutar de paris y la parada
 
        G                     A                      
      entre hombres sudando y marilyn, mi enamo...
      

      D               Bm
      vivo conjugando la virtud y el pecado 

      G                A
      vivo del futuro, y tambien del pasado

           D                 Bm
      me gusta disfrutar de paris y la parada
 
        G                     A                 D        
      entre hombres sudando y marilyn, mi enamorada.

    
            No  va   cambiar,
                                
        1 ||------------------------------------------------
        2 ||-----------3------------------------------------
        3 ||-------2---------2------------------------------
        4 ||--0---------------------------------------------
        5 ||------------------------------------------------
        6 ||------------------------------------------------
 
              te  va   dañar
                                
        1 ||------------------------------------------------
        2 ||-----------3------------------------------------
        3 ||-------2---------0------------------------------
        4 ||--0---------------------------------------------
        5 ||------------------------------------------------
        6 ||------------------------------------------------
       
              de  esas no cambian, no cambian

        1 ||--------------2-----------------2---------------
        2 ||-----------3--3-----2--2--------3---------------
        3 ||-------2------2-----2--2--------2---------------
        4 ||--0-----------------2--2------------------------
        5 ||------------------------------------------------
        6 ||------------------------------------------------


  *************************************
  *   Cualquier Consulta escribir a   * 
  *   Jitosa@      [.)(.]      *
  *   Jimmy Tovar Sanchez             *
  *   Cusco - Peru        [FNST]      *
  *************************************


                 _/                             _/
               _/                                 _/ 
            _/_/                                    _/
         _/  _/ _/ _/_/_/_/ _/_/_/_/  _/_/_/_/  _/ _/_/                             
             _/  _/    _/    _/    _/  _/        _/  _/ _/                                      
           _/   _/    _/    _/    _/  _/_/_/_/  _/   _/
           _/    _/    _/    _/    _/        _/  _/_/_/_/
    _/     _/     _/    _/    _/_/_/_/  _/_/_/_/  _/     _/
     _/   _/                                              _/
      _/ _/             JIMMY TOVAR SANCHEZ            _/  _/
      _/_/                  CUSCO - PERU                 _/ _/
       _/                  Jitosa@                    _/
                  Fono: (084) 651821
Suggest correction
Give kudos to tab author, rate the tab!
1 2 3 4 5
comments
print report bad tab
guest
You may want to rate the tab now too:
select rating
Wanna post a correction for this tab? Suggest correction