Oops, an error
Loading. Please wait.

Reconciliacion Tab

67 views 1 this week
2 commentsread comments
1 2 3 4 5
3 more votes to show rating
add to favorites
launch autoscroll
font size
0
reset
how to read this tab
guitar tuner
×
Best way to learn
"Reconciliacion"
Autoscroll
slow
fast
+/-
esc
set tempo
stop
holassss mi vercion de esta cancion me costo trabajo sacarla asi q a practicar esta facil


intro:
-----------------|-----------------|-----------------------------|
-----------------|-----------------|-----------------------------|
-----------------|-5-5555-7-7P9-5--|-----------------------------|   x2 -- ( A )
-----4-5-5p7-5-4-|---------------9-|--7-77-9-9P10-9-7-5-7-7P9P7--|
--5-5-----------5|-----------------|---------------------------7-|
-----------------|-----------------|-----------------------------|

---------------------------------/15-14-12--12-10-8-12-10-8----|
---------------------------------------------------------------|
--9p7p5-9p7p5-9--11p9p7-11p9p7-11------------------------------|   x4  -- ( B )
---------------------------------------------------------------|
---------------------------------------------------------------|
---------------------------------------------------------------|

--12-10-8-10P8-6P7-7--|
----------------------|
----------------------|


fill I
-------------------------|
--10-10p12-10-8-7-8-7-5--|
-------------------------|

fil II
----------------|
---5-7-7-8-8/10-|
--7-------------|

fill III
---------------|
----15--14--12-|
--14--14--12---|

filL IV
----------------|
--8-7-7p5-3-3/5-|
----------------|

fill V
------------|
-----3------|
--2p4-2-2/4-|


fill VI
-----------------|
--11/12-12-12-12-|
--10/12-12-12-12-|   x2
--10/12-12-12----|

fill VII
-------10p12-10-8-7-7p8p7-5-|
--12-12---------------------|  x2
----------------------------|


Em                                          G
Sentado en la cantina llorando una pena de amor                     FILL I
Em                                                  G
se encuentra la muchacha tomando en la mesa del rincon              FILL II
Am                                                      Em
cuando de pronto en la puerta el muchacho preguntando llego         FILL III
Am                                                              B
el motivo de su pena el galan de su novela que esperaba la planto.  FILL IV

Em                                          G
Cuasi fuera aquellos tiempos algo iba a suceder                     FILL V
  Em                                        G
mozo jaleme dos sillas hacia la mesa del rincon                     FILL VI
Am                                          Em
como no pasaba nada el le suplicaba le pedia perdon                 FILL VII
Am                                           B
entre abrazos y caricias te quieros y disculpas este grito se escucho...


CORO
Em          C         D                        B
Mozo dos cervezas... y una pa cada mesa por mi cuenta
Em          C         D                       B
Mozo dos cervezas y una pa cada mesa por mi cuenta..oh,ohh
Am                     Em
ella me ha perdonado, hay reconciliacion
C                           B
pongame una chicha de chacalon...

REPETRI INTRO


-----------|----------------------|
-----------|----------------------|
--4-4-4-4--|-5-5-5-5--|-7-7-7-7-7-|
---5-5-5-5-|--7-7-7-7-|--9-9-9-9--|

-----------------|---------------------------|---------------------------|---------------------------|
--------8-7------|--------13/15-13-12--------|--------15/17-15-13-12-----|-----------12/14-12--------|
---7-999---9-8---|99-10-12-----------14-12-11|99-10-12--------------14-12|11-11-12-14--------15-13-12|
--9------------9-|---------------------------|---------------------------|---------------------------|

-----------------11--11--11--12--|
----12--12--12-----12--12--12----|
--14--14--14---------------------|

(REPETIR CORO)

G            Bm          Em
Tu seras La causa de mi muerteeeee.
C           D            Em
de mi muertee.. oh.. de mi muerte(BIS)

REP. CORO(varias veces)


FINAL
---------12-10|----------------------|-----------------|-----15-14-12-|
----10-12-----|-12-10--10-10-12/15-15|-10-10-12/15-15--|12-10---------|
--12----------|------12--------------|-----------------|--------------|
--------------|----------------------|-----------------|--------------|


REPETIR B


A PRACTICAR
 SU AMIGO
               RUBEN
                    MANSON    BYE
Suggest correction
Give kudos to tab author, rate the tab!
1 2 3 4 5
comments
print report bad tab
2 comments total.
0 reply
wwwjim-fabian 10 Aug 19, 2015 06:45 PM

le falta la tab del coro

0 reply
wwwjim-fabian 10 Aug 19, 2015 06:48 PM

didn't like this contribution

guest
You may want to rate the tab now too:
select rating
Wanna post a correction for this tab? Suggest correction