Oops, an error
Loading. Please wait.

Sarita Colonia Tab

70 views 1 this week
no commentswrite comment
1 2 3 4 5
3 more votes to show rating
add to favorites
launch autoscroll
font size
0
reset
how to read this tab
guitar tuner
×
Best way to learn
"Sarita Colonia"
Autoscroll
slow
fast
+/-
esc
set tempo
stop
Intro: C

e-0-2h3-4------------------
B---------4-5-6-44-4h6-4h6-
G--------------------------
D--------------------------
A--------------------------
E--------------------------

e-5-6-7------5-6-7-------5-6-7-------5-6-7-------5v-
B-------5-6-7------5-6-7-------5-6-7-------5-6-7----
G---------------------------------------------------
D---------------------------------------------------
A---------------------------------------------------
E---------------------------------------------------

C
Con voz de piedra, comba, fuerza y sudor
C
van doblegando al gigante piedron,
C
golpe a golpe en un solo lugar,
C
con la certeza que sera su hogar,
       F             C
y el cerro, se rinde ya,
       G   F      C
a las manos del pueblo


C
De todas la razas y de todo,
C
con sus mil crencias y modo de pensar,
C
van construyendo en asamblea local,
C
fin de semana, trabajo comunal
      F            C             G    F            C
Sin dinero, para forjar agua y desague, pista y demas
F
No se amilanan aunque no hay lana,
F                                 C
se autofinancian, con fondos propios,
F
suena un huainito, bailan salseros,
F                         C
gritan roqueros, piden chicha
F
Se armo una bronca que termino,
F                                 G
cuando un achorao saca un cuchillon

Una chicha!!!
C          Am     F            G
Sarita Colonia, patrona del pobre,
C         Am      F          G
no quiero mas pena, no quiero mas llanto

e-5-6-7------5-6-7-------5-6-7-------5-6-7-------5v-555-
B-------5-6-7------5-6-7-------5-6-7-------5-6-7--------
G-------------------------------------------------------
D-------------------------------------------------------
A-------------------------------------------------------
E-------------------------------------------------------

F
No se amilanan aunque no hay lana,
F                                C
se autofinancian, con fondos propios,
F
suena un huainito, bailan salseros,
F                       C
gritan roqueros, piden chicha
F
Se armo una bronca que termino,
F                             G
cuando un achorao saca un cuchillon

Una chicha!!!
C       Am      F            G
Sarita Colonia, patrona del pobre,
C       Am       F             G
no quiero mas pena, no quiero mas llanto
         G
Oh, oh, oh
Suggest correction
Give kudos to tab author, rate the tab!
1 2 3 4 5
comments
print report bad tab
guest
You may want to rate the tab now too:
select rating
Wanna post a correction for this tab? Suggest correction