Oops, an error
Loading. Please wait.

Saya De Amor Tab

17 views 1 this week
no commentswrite comment
1 2 3 4 5
3 more votes to show rating
add to favorites
×
Save as Personal and add changes to this tab that will be seen only by you. Learn more ›
×
You can save this tab as Personal to edit and correct it or add notes. All changes will be seen only by you. Learn more »
save as personal
new!
launch autoscroll
font size
0
reset
how to read this tab
guitar tuner
Autoscroll
slow
fast
+/-
esc
set tempo
stop
este tema empiesa con pito facil lo sacan es una saya como su nombre
hay les va

intro

|--------------------|-------||--------------------|-------|
|-----8---10(11)10-8-|--8-10-||-----8---10(11)10-8-|-7p8p7-|
|--7p9-9-------------|-9-----||--7p9-9-------------|-------|
|--------------------|-------||--------------------|-------|
|--------------------|-------||--------------------|-------|
|--------------------|-------||--------------------|-------|

|------15----17(18)17-15--15-17-||------15----17(18)17-15--|
|-15p17--17-------------17------||-15p17--17---------------|
|-------------------------------||-------------------------|
|-------------------------------||-------------------------|
|--------------------|----------||-------------------------|
|--------------------|----------||-------------------------|

rapido

|-3-----------3-----------5----------|   |-7---------7-------------5----------------|    |---------|
|--7p5p3-3-5---7p5p3-3-5---8p7p5-7p5-|x2 | -10p8p7-8--10p8p7-8-10---8p7p5-5---------|x2  |---------|
|-------5-----------5-----------7---7|   |---------------------------------7-7p9p7--|    |--7-8-9--|
|------------------------------------|   |----------------------|-------------------|    |---------|


Em   Bm
Em  (D-C) Bm(E-D)Em
Am   Bm

la letra no la puse por q lo mas importante esta ahy
esas son todad las notas
ya no molesten q mas quieren saya tusa tusasa tusa...
Suggest correction
Give kudos to tab author, rate the tab!
1 2 3 4 5
comments
print report bad tab
guest
Wanna post a correction for this tab? Suggest correction