Oops, an error
Loading. Please wait.

Sinfonia Del Adios Tab

43 views 3 this week
no commentswrite comment
1 2 3 4 5
3 more votes to show rating
add to favorites
×
Save as Personal and add changes to this tab that will be seen only by you. Learn more ›
×
You can save this tab as Personal to edit and correct it or add notes. All changes will be seen only by you. Learn more »
save as personal
new!
launch autoscroll
font size
0
reset
how to read this tab
guitar tuner
Autoscroll
slow
fast
+/-
esc
set tempo
stop
Empezamos asi; haciendo un jalado en la primera parte con
estas notas, el resto es arpegiado y/o rasgueado.


1--------------0------------0-----------
2-----------3-----------5---5-----------
3--------0------------0-----------------
4------2-----------4--------------------
5---3-----------5-----------------------
6---------------------------------------

Riff 1
       [ch]GM*[/ch]                                        Bis.
1-------------------3-----------3-------------I--------
2------------3-----------3----------3---------I--------
3--------0-----0------------0-----------------I--------
4---------------------------------------------I--------
5---------------------------------------------I--------
6----3----------------------------------------I--------

Punteo de introducción                SolM*
1-----3/5----3----3/5----3--------------------I----3----
2---------------------------------5----3------I----3----
3---------------------------------------------I----0----
4---------------------------------------------I----0----
5---------------------------------------------I----2----
6---------------------------------------------I----3----

     (*)        [ch]C               SOLM*[/ch]
1---------------0-------------------3---------
2---------------1-------------------3---------
3---------------0-------------------0---------
4---------------2--------0--2-------0---------
5------0--------3-----3-------------2---------
6----3----------x-------------------3---------
             [ch]CM*[/ch]
1-------------0-------------------3----I--------
2-------------1-------------------3----I--------
3-------------0-------------------0----I--------
4-------------2---------0--2------0----I--------
5--------0----3------3------------2----I--------
6----3--------x-------------------3----I--------

(*) Se puede arpegiar con el patrón del riff 1, o rasguear,
eso es a su gusto y habilidad.

     Ya, ya todo ha terminado ya,
[ch]GM*  [ch]C [/ch]                   [ch]D [/ch] SOLM*[/ch]
     mas parece que fue ayer
              [ch]C          [ch]D [/ch]   SOLM*[/ch]
     cuando por primera vez le hable...
         [ch]C                      [ch]D [/ch]      REM7[/ch]
     Fue casi un placer sexual,
  [ch]GM* [ch]C [/ch]             [ch]D [/ch] SOLM*[/ch]
     verla y simplemente hablar
      [ch]C                  [ch]D [/ch]   SOLM*[/ch]
     pues así ha de charlar, placer...
            [ch]C              [ch]D [/ch]      REM7[/ch]
       <<Coro>>
Su cuerpo es toda una sinfonía,
       [ch]C                       [ch]D [/ch] SOLM*[/ch]
es suave y acelerado,
        [ch]C           RE [/ch]
así era en el amor, uoh...
     [ch]C          [ch]D [/ch]  REM7[/ch]
Tiempo tu que das respuesta a todo
 [ch]C                            [ch]D [/ch]       SOLM*[/ch]
dime por que se ha marchado,
[ch]C                          RE [/ch]
cual ha sido mi error de amor...
      [ch]C              [ch]D       REM7[/ch]   SOLM*[/ch]
    Rep. coro.
Adiós... Adiós mi amor
             [ch]C          SOLM*[/ch]

Eso es todo.
Quiero una vez mas dedicar también esta canción
de este excelente grupo peruano a  Edith; ahora mi novia.
 Aunque el adiós será una ventana por la que a veces miraremos,
 comprendí que es solo eso; una ventana,
 nunca será una puerta. Siempre te querré. RJ

Sugerencias a mi correo: raulazo_rj@
Las mandan a este correo, pues olvide mi cuenta anterior.
 Saludos a la UNA Puno -Odonto.- a todos los malogrados;
Chaco, Omar, Oliver, Chino, Héctor, a todos en gral.
Suggest correction
Give kudos to tab author, rate the tab!
1 2 3 4 5
comments
print report bad tab
guest
Wanna post a correction for this tab? Suggest correction