Oops, an error
Loading. Please wait.

El Novio De La Muerte Tab

342 views 1 this week
no commentswrite comment
1 2 3 4 5
3 more votes to show rating
add to favorites
×
Save as Personal and add changes to this tab that will be seen only by you. Learn more ›
×
You can save this tab as Personal to edit and correct it or add notes. All changes will be seen only by you. Learn more »
save as personal
new!
launch autoscroll
font size
0
reset
how to read this tab
guitar tuner
Autoscroll
slow
fast
+/-
esc
set tempo
stop
punteo de el novio de la muerte...
con la cejilla en el 2º traste!


E----------------------------------------------------
B----------------------------------------7-8-7-5~----
G--4-67-7777-76-4-7-64~----4-67--77777---------------
D-4-----------------------4--------------------------
A----------------------------------------------------
E----------------------------------------------------


E----------------------------------------------------
B------5-555--77-5-7-5------------------55-----------
G-66-7------------------7~---7-6-4---------7-5-4-----
D---------------------------------4-444--------------
A----------------------------------------------------
E----------------------------------------------------


puede ir acompañado de Bm, A, G y F# que son
los acordes de la cancion y mientras se puntea y suena muy rumbero!
Suggest correction
Give kudos to tab author, rate the tab!
1 2 3 4 5
comments
print report bad tab
guest
Wanna post a correction for this tab? Suggest correction