Oops, an error
Loading. Please wait.

Almohada Tab

28 views 3 this week
no commentswrite comment
1 2 3 4 5
3 more votes to show rating
add to favorites
launch autoscroll
font size
0
reset
how to read this tab
guitar tuner
×
Best way to learn
"Almohada"
Autoscroll
slow
fast
+/-
esc
set tempo
stop
e-|-------------------------------------------|-
B-|-8--10--12--8--13--12--10--12-----------x 2|-
G-|-------------------------------------------|-
D-|-------------------------------------------|-
A-|-------------------------------------------|-
E-|-------------------------------------------|-

   [ch]D5     [ch]C5                  [ch]G5[/ch]   FA#5[/ch]-SOL5[/ch]
Me gustaría ser un poco mas pervertido
      [ch]D5[/ch]              [ch]C5[/ch]
La almohada ya no es igual
                      [ch]G5 [ch]F#5[/ch]-SOL5[/ch]
Quiero algo que esté vivo

e-|-------------------------------------------|-
B-|-8--10--12--8--13--12--10--12-----------x 4|-
G-|-------------------------------------------|-
D-|-------------------------------------------|-
A-|-------------------------------------------|-
E-|-------------------------------------------|-
   [ch]D5          [ch]C5                    [ch]G5[/ch]  FA#5[/ch]-SOL5[/ch]
Me voy a enloquecer, no aguanto este martirio
       [ch]D5       [ch]C5              [ch]G5[/ch]  FA#5[/ch]-SOL5[/ch]
No lo puedo soportar necesito un alivio

e-|-------------------------------------------|-
B-|-8--10--12--8--13--12--10--12-----------x 4|-
G-|-------------------------------------------|-
D-|-------------------------------------------|-
A-|-------------------------------------------|-
E-|-------------------------------------------|-

   [ch]D5     [ch]C5                    [ch]G5[/ch]   FA#5[/ch]-SOL5[/ch]
Me gustaría ser un poco mas pervertido
       [ch]D5[/ch]             [ch]C5[/ch] (SILENCIO)
La almohada ya no es igual
       [ch]D5[/ch]             [ch]C5[/ch] (SILENCIO)
La almohada ya no es igual
       [ch]D5[/ch]            [ch]C5[/ch] (SILENCIO)
La almohada ya no es igual
                      [ch]G5[/ch]
Quiero algo que esté vivo

e-|-------------------------------------------|-
B-|-------------------------------------------|-
G-|-------------------------------------------|-
D-|-------------0--2--5~~~--------------------|-
A-|----0--2--3--------------------------------|-
E-|-3-----------------------------------------|-

[ch]G5[/ch]
Suggest correction
Give kudos to tab author, rate the tab!
1 2 3 4 5
comments
print report bad tab
guest
You may want to rate the tab now too:
select rating
Wanna post a correction for this tab? Suggest correction