Oops, an error
Loading. Please wait.

Arquero Volante Tab

19 views 1 this week
no commentswrite comment
1 2 3 4 5
3 more votes to show rating
add to favorites
launch autoscroll
font size
0
reset
how to read this tab
guitar tuner
×
Best way to learn
"Arquero Volante"
Autoscroll
slow
fast
+/-
esc
set tempo
stop
A           E           A
Ni Juan, ni Pedro, ni Pablo
        E            A
quieren ir hacia el arco
    D              E         C#m
Jesús sabrá que hacer para salir
          A(con cejilla traste 5)  B-B (con cejilla traste 7)
hacia adelante?vamos a jugar
   A-G#-A (con cejilla)
con arquero volante

e-|-----------------------------------------------|-
B-|-----------------------------------------------|-
G-|-----9------9-9-7-7-6-6------------------------|-
D-|-7~~~---7~~~------------9--Acá engancha con LA-|-
A-|-----------------------------------------------|-
E-|-----------------------------------------------|-

A5            E5          A5
Ni Juan, ni Pedro, ni Pablo
        E5            A5
quieren ir hacia el arco
    D5              E5         C#5
Jesús sabrá que hacer para salir
          A5   B5 - B5
hacia adelante?vamos a jugar
     A5 - G#5 - A5
con arquero volante


Hay que cuidar mucho la pelota
cuidado con Judas que te hace
un gol en contra

Jesús sabe que hacer para salir
hacia adelante?vamos a jugar
con arquero volante

e-|-----------------------------------------------|-
B-|-----------------------------------------------|-
G-|---6----6----9-9-7-6-7-6-7-6---7-6-------------|-
D-|-7---7-7---7-----------------7-----9-7---------|-
A-|-----------------------------------------------|-
E-|-----------------------------------------------|-


e-|-----------------------------------------------|-
B-|-----------------------------------------------|-
G-|---6----6----9-9-7-6-7-6-7-6-------------------|-
D-|-7---7-7---7-----------------7-----------------|-
A-|-----------------------------------------------|-
E-|-----------------------------------------------|-


Coro (fondo ooohh, ooh)
D5               E5
Si la AFA te afana
C#5             A5
la FIFA que onda?
B5-B5     A5-G#5-AS
LA FIFA QUE ONDA?

    A5           E5
MUCHACHOS, POR DIOS
       A5
SE LO PIDO, AGARREN UNA
              E5       A5
LA FECHA QUE VIENE JUGAMOS CONTRA BUDDA!!

    D5              E5         C#5
Jesús sabe que hacer para salir
         A5        B5-B5
hacia adelante?....vamos a jugar
A5-G#5-A5
con arquero volante X3

A5 B5 X2 A5-G#5-AS

Fijense los tiempos con el solo.

Estas notas estan perfectas xq son las que me paso
hernan, el guitarrista de Los Morrones.
Suggest correction
Give kudos to tab author, rate the tab!
1 2 3 4 5
comments
print report bad tab
guest
You may want to rate the tab now too:
select rating
Wanna post a correction for this tab? Suggest correction