Oops, an error
Loading. Please wait.

Cocalavera Tab

30 views 3 this week
no commentswrite comment
1 2 3 4 5
3 more votes to show rating
add to favorites
launch autoscroll
font size
0
reset
how to read this tab
guitar tuner
×
Best way to learn
"Cocalavera"
Autoscroll
slow
fast
+/-
esc
set tempo
stop
La introducción es media confusa, lo más cercano que pude sacar fue esto:

e-|-------------------------------------------|-
B-|-------------------------------------------|-
G-|-----2------0-------0-------0--------------|-
D-|---2------2-------2-------2---2------------|-
A-|-0------3-------4-------3------------------|-
E-|-------------------------------------------|-

Los cambios de acordes en los versos son así: LA - DO-DO - LA
Y lo hace 4 veces

[ch]A - [ch]C-DO[/ch] - LA[/ch]
Esa bandera en vez de estrellas
deberia tener calaveras

e-|-------------------------------------------|-
B-|-------------------------------------------|-
G-|-----2------0-------0-------0--------------|-
D-|---2------2-------2---2---2---2------------|-
A-|-0------3-------4-------3------------------|-
E-|-------------------------------------------|-

[ch]A - [ch]C-DO[/ch] - LA[/ch]
Invadiendo paises, destruyendo escuelas y hospitales
A los que quedan vivos le dan coca-cola y a cagarse

e-|-------------------------------------------|-
B-|-------------------------------------------|-
G-|-----2------0-------0-------0--------------|-
D-|---2------2-------2---2---2---2------------|-
A-|-0------3-------4-------3------------------|-
E-|-------------------------------------------|-

        [ch]A5             [ch]C5[/ch]            DO#5[/ch]
Y Tiran bombas, Y tiran bombas y tiran bombas
         [ch]C5[/ch]
Como si fuese un video juego

BOMBAS? BOMBAS?

[ch]A5             [ch]C5[/ch]             DO#5[/ch]
Bombas, y tiran bombas, y tiran bombas..
[ch]C5[/ch]
¿Por qué no me tiran la goma?

e-|-------------------------------------------|-
B-|-------------------------------------------|-
G-|-----2------0-------0-------0--------------|-
D-|---2------2-------2---2---2---2------------|-
A-|-0------3-------4-------3------------------|-
E-|-------------------------------------------|-

Restablecimos el orden
Esperemos que otra vez esto no pase
Ustedes se quedan con los muertos
Nosotros, con los capitales

[ch]A[/ch]
Suggest correction
Give kudos to tab author, rate the tab!
1 2 3 4 5
comments
print report bad tab
guest
You may want to rate the tab now too:
select rating
Wanna post a correction for this tab? Suggest correction