Oops, an error
Loading. Please wait.

El Baseball Tab

9 views 1 this week
no commentswrite comment
1 2 3 4 5
3 more votes to show rating
add to favorites
launch autoscroll
font size
0
reset
how to read this tab
guitar tuner
Autoscroll
slow
fast
+/-
esc
set tempo
stop
e-|-----------------------------------------------|-
B-|-----------------------------------------------|-
G-|-----------------------------------------------|-
D-|--------------4~~~(dejar sonar)--LA#5----------|-
A-|-----4--5--6-----------------------------------|-
E-|--6--------------------------------------------|-

LA#5 (repetir hasta el punteo)
Un deporte muy complicado

e-|--------------------|-       e-|--------------------|-
B-|--------------------|-       B-|--------------------|-
G-|--------------------|-  X3   G-|--------------------|-
D-|--------------4-----|-       D-|--------------4--4--|-
A-|-----4--5--6--------|-       A-|-----4--5--6--------|-
E-|--6--------------6--|-       E-|--6-----------------|-


e-|--------------------------------------------|-
B-|--------------------------------------------|-
G-|-------------4-----------------4--6--6^8----|-
D-|----4--5--6-6----6-----4--5--6--------------|-
A-|-6-----------------6------------------------|-
E-|--------------------------------------------|-

e-|--------------------|-
B-|--------------------|-
G-|--------------------|-  x2
D-|--------------4-----|-
A-|-----4--5--6--------|-
E-|--6--------------6--|-

BREAK: FA#5 (6 GOLPES)- LA#5 (6 GOLPES)
[ch]F#5 (2 GOLPES)-[ch]C#5[/ch] (2 GOLPES)-LA#5[/ch](7 GOLPES Y SIGUE SONANDO EN EL VERSO)

[ch]A#5[/ch]
El baseball el baseball
[ch]F#5   LA#5[/ch]
No, no lo entiendo
[ch]F#5-[ch]C#5[/ch]-LA#5[/ch]
Al baseball, no, no, no, no

PUNTEO COMPLETO Y BREAK

[ch]A#5[/ch]
El baseball, el baseball
[ch]F#5   LA#5[/ch]
No, no lo entiendo
[ch]F#5-[ch]C#5[/ch]-LA#5[/ch]
Al baseball, no, no, no, no

PUNTEO COMPLETO Y BREAK

[ch]A#5[/ch]
El baseball
Yo no lo entiendo
El baseball
Yo no lo entiendo
El baseball
Yo no lo entiendo
Yo no lo entiendo
[ch]F#5-[ch]C#5[/ch]-LA#5[/ch]
No no no no no no
Suggest correction
Give kudos to tab author, rate the tab!
1 2 3 4 5
comments
print report bad tab
guest
Wanna post a correction for this tab? Suggest correction