Oops, an error
Loading. Please wait.

Estoy Gordo Tab

16 views 1 this week
no commentswrite comment
1 2 3 4 5
3 more votes to show rating
add to favorites
launch autoscroll
font size
0
reset
how to read this tab
guitar tuner
Autoscroll
slow
fast
+/-
esc
set tempo
stop
Help us to improve Ultimate-Guitar.com Take our survey!
×
[ch]E5 - [ch]F#5-SOL#5[/ch] - LA5[/ch] X 4

[ch]E5                LA5[/ch]
Tengo arruinada la maquina de escribir
[ch]E5          LA5[/ch]
Ultimamente no puedo sonreir
[ch]E5            LA5[/ch]
Nos bombardean, no hay descanso
[ch]E5            LA5[/ch]
Me siento afuera de todos lados

[ch]C#5             SI5[/ch]
Quiero buscarle la vuelta a este cuadrado
[ch]C#5              LA5[/ch]
Estar casi muerto y seguir intentando

[ch]E5            LA5[/ch]
Yo me resisto con mi herramienta
[ch]E5                LA5[/ch]
No compro nada que no quiero que me vendan
[ch]E5                LA5[/ch]
Te vendan los ojos, te cortan la lengua
[ch]E5                LA5[/ch]
Te dan un celular y si estas gordo tenes un problema

[ch]C#5          SI5[/ch]
Jamás podrás ponerte esta remera
[ch]C#5          SI5[/ch]
Jamás podrás ponerte esta remera

RIFF X 4:

e-|12------12------12--------------------------------------|-
B-|----12------12------12----------------------------------|-
G-|--------------------------13--14--13--14--16--14--13--11|-
D-|--------------------------------------------------------|-
A-|--------------------------------------------------------|-
E-|--------------------------------------------------------|-

e-|-----------------------------------------|-
B-|-----------------------------------------|-
G-|-----------------2-2-2-2-2---------------|-
D-|2-2-2-2-2--------2-2-2-2-2--4p2p0--------|-
A-|2-2-2-2-2--------0-0-0-0-0---------4p2p0-|-
E-|0-0-0-0-0---2h4--------------------------|-

e-|-----------------------------------------|-
B-|-----------------------------------------|-
G-|-----------------2-2-2-2-2---------------|-
D-|2-2-2-2-2--------2-2-2-2-2---------------|-
A-|2-2-2-2-2--------0-0-0-0-0---------------|-
E-|0-0-0-0-0---2h4--------------------------|-

[ch]E5        LA5[/ch]
Estoy Gordo, estoy gordo (bis)
¡Pa-pa-pa-pa-pa Papafrita! (bis)
Suggest correction
Give kudos to tab author, rate the tab!
1 2 3 4 5
comments
print report bad tab
guest
You may want to rate the tab now too:
select rating
Wanna post a correction for this tab? Suggest correction