Oops, an error
Loading. Please wait.

Porky's Tab

5 views 1 this week
no commentswrite comment
1 2 3 4 5
3 more votes to show rating
add to favorites
launch autoscroll
font size
0
reset
how to read this tab
guitar tuner
Autoscroll
slow
fast
+/-
esc
set tempo
stop
Help us to improve Ultimate-Guitar.com Take our survey!
×
Nota: toda la cancion usa los mismos acordes pero distintos rasgueos

Intro: A# C# F# G#  X3


------------------------------------14---12-10--12-10--     1
-11----11----11----11----11----11----------------------     2
----10----10----10----10----10-------------------------     3

-----------------------------------10-12-10------------     1
-11----11----11----11----11----11----------------------     2
----10----10----10----10----10-------------------------     3


(Palm Mute)

    A#                    C#
El hombre es capaz de llegar hasta la luna
F#                    G#
  Y no ha podido terminar esta locura
A#           C#
  Subyugados por un par de estados
    F#                     G#
Que solo representan al billete americano


(Rasgueo sin Palm Mute)

A# C# F# G#
       Vivimos como el orto        x2


Como corderos todos calladitos
Como corderos derecho al matadero
Fascinados por las computadoras
Con la soga al cuello esperando la ultima hora


Vivimos como el orto    x2


Nuestra felicidad son un par de zapatillas
Si no me alcanza me tomo un par de pastillas
Voy asesinar a mis propios compañeros
Lo haría solo para ascender de puesto

Solo sobre los mismo acordes: A# C# F# G#


------------------------------------14---12-10--12-10--     1
-11----11----11----11----11----11----------------------     2
----10----10----10----10----10-------------------------     3

-----------------------------------10-12-10------------     1
-11----11----11----11----11----11----------------------     2
----10----10----10----10----10-------------------------     3

------------------------------------14---12-10--12-10--     1
-11----11----11----11----11----11----------------------     2
----10----10----10----10----10-------------------------     3

-----------------------------------10-12-10------------     1
-11----11----11----11----11----11-----------11---------     2
----10----10----10----10----10-------------------------     3


(Aca usa otro tipo de rasgueo con los mismo acordes)

Es la escencia misma una locura   x3

Por lo menos viajamos a la luna

(Vuelve al rasgueo del estribillo con los mismo acordes)

Es la escencia misma, vivimos como el orto

Vivimos como el orto  x3

termina A# C# F# G# x2


Me encanta este tema, cualquie duda el_mariano93@
Suggest correction
Give kudos to tab author, rate the tab!
1 2 3 4 5
comments
print report bad tab
guest
You may want to rate the tab now too:
select rating
Wanna post a correction for this tab? Suggest correction