Oops, an error
Loading. Please wait.

Siberia Tab

19 views 1 this week
no commentswrite comment
1 2 3 4 5
3 more votes to show rating
add to favorites
×
Save as Personal and add changes to this tab that will be seen only by you. Learn more ›
×
You can save this tab as Personal to edit and correct it or add notes. All changes will be seen only by you. Learn more »
save as personal
new!
launch autoscroll
font size
0
reset
how to read this tab
guitar tuner
Autoscroll
slow
fast
+/-
esc
set tempo
stop
SIBERIAAAAAAAAAAA

RIFF:
e-|-------------------------------------------|-
B-|-------------------------------------------|-
G-|---------2----2-3--2-3-2-0-----------------|-
D-|-0--0--3----3---------------3--0-----------|-
A-|-------------------------------------------|-
E-|-------------------------------------------|-

EN LOS VERSOS ALTERNA RE, CON UNA VARIANTE DE RE
SERIA ALGO ASI

e-|-------------------------------------------|-
B-|-------------------------------------------|-
G-|-------------------------------------------|-
D-|-7---7--7--8--7--8--7----------------------|-
A-|-5---5--5--5--5--5--5----------------------|-
E-|-------------------------------------------|-

[ch]D[/ch]
Las revoluciones ya no me interesan
Ni el prolectariado  ni derrocar la nobleza
Quiero divertirme , quiero ir a una fiesta
Quiero tomar vodka  y gastar todas mis zuelas

[ch]A5[/ch]-[ch]G5[/ch]
Bailando,
[ch]A5-[ch]G5   SOL5[/ch]-SOL5[/ch]-[ch]F5[/ch]-[ch]E5[/ch]
Bailando en Siberia

[ch]D[/ch]
En siberia
En siberia
Bailando en siberia
En siberia
En Siberia

[ch]A5[/ch]-[ch]G5[/ch]
Bailando,
[ch]A5-[ch]G5   SOL5[/ch]-SOL[/ch]-5-[ch]F5[/ch]-[ch]E5[/ch]
te vas a congelar

RIFF

[ch]D[/ch]
Las revoluciones ya no me interesan
Ni el prolectariado  ni derroca la nobleza
Quiero divertirme, quiero ir a una fiesta
Quiero tomar vodka  y gastar todas mis zuelas

[ch]A5[/ch]-[ch]G5[/ch]  X 2
[ch]G5-SOL5[/ch]-[ch]F5[/ch]-[ch]E5[/ch]

e-|-------------------------------------------|-
B-|-------------------------------------------|-
G-|----2~-----3-3-3-2~------------------------|-
D-|-0~----3~-----------3~---------------------|
A-|-------------------------------------------|-
E-|-------------------------------------------|-

e-|--------------------------------|-
B-|--------------------------------|-
G-|2-2-2-2-2-2-2-2-3-3-3-3-3-3-3-3-|-
D-|0-0-0-0-0-0-0-0-0-0-0-0-0-0-0-0-|-
A-|--------------------------------|-
E-|--------------------------------|-

e-|--------------------------------|-
B-|--------------------------------|-
G-|5-5-5-5-5-5-5-5-7-7-7-7-7-7-7-7-|-
D-|0-0-0-0-0-0-0-0-0-0-0-0-0-0-0-0-|-
A-|--------------------------------|-
E-|--------------------------------|-

e-|--------------------------------|-
B-|--------------------------------|-
G-|-7---5---3---2------------------|-
D-|-0---0---0---0------------------|-
A-|--------------------------------|-
E-|--------------------------------|-


[ch]D[/ch]
En siberia
En siberia
En siberia
Bailando en siberia
En siberia
En siberia

[ch]A5[/ch]-[ch]G5[/ch]
Bolchevique,
[ch]A5[/ch]-[ch]G5[/ch]
Arrepentido
[ch]A5[/ch]-[ch]G5[/ch]
En Siberia
[ch]G5-SOL5[/ch]-[ch]F5[/ch]-[ch]E5[/ch]
te vas a congelar

RIFF Y TERMINA EN RE
Suggest correction
Give kudos to tab author, rate the tab!
1 2 3 4 5
comments
print report bad tab
guest
Wanna post a correction for this tab? Suggest correction