Oops, an error
Loading. Please wait.

Turbante Tab

13 views 1 this week
no commentswrite comment
1 2 3 4 5
3 more votes to show rating
add to favorites
launch autoscroll
font size
0
reset
how to read this tab
guitar tuner
Autoscroll
slow
fast
+/-
esc
set tempo
stop
[ch]A5-[ch]C#5[/ch]-DO5[/ch]
VIAJEEEEEEE

[ch]A5-[ch]C#5[/ch]-DO5[/ch]
Gane un concurso entre mucha gente
Y el premio es, un viaje al medio oriente
[ch]A5-[ch]C#5[/ch]-MI5[/ch]
Llevo camisa, llevo corbata
Llevo revolver, llevo granadas

[ch]A5-[ch]C#5[/ch]-DO5[/ch]
Un viaje, un viaje al medio oriente
Un viaje, un viaje al medio oriente
[ch]A5-[ch]C#5[/ch]-MI5[/ch]
Llevo camisa, llevo corbata, llevo un revolver

e-|------------------------------------------------------|-
B-|------------------------------------------------------|-
G-|------------------------------------------------------|-
D-|------------------------------------------------------|-
A-|5--4--2--------2--------2--4--5--4--2--------2--------|-
E-|3--2--0--0-2-3---3-2-0--0--2--3--2--0--0-2-3---3-2-0--|-

Sacame el turbante que me perturba

e-|------------------------------------------------------|-
B-|------------------------------------------------------|-
G-|------------------------------------------------------|-
D-|------------------------------------------------------|-
A-|5--4--2--------2--------2--4--5--4--2--------2--------|-
E-|3--2--0--0-2-3---3-2-0--0--2--3--2--0--0-2-3---3-2-0--|-

Yo no fumo Camel, no fumo Camel
Me cae bien Osama Bin Laden

e-|------------------------------------------------------|-
B-|------------------------------------------------------|-
G-|------------------------------------------------------|-
D-|------------------------------------------------------|-
A-|5--4--2--------2--------2--4--5--4--2--------2--------|-
E-|3--2--0--0-2-3---3-2-0--0--2--3--2--0--0-2-3---3-2-0--|-

Sacame el turbante que me perturba


e-|------------------------------------------------------|-
B-|------------------------------------------------------|-
G-|------------------------------------------------------|-
D-|------------------------------------------------------|-
A-|5--4--2--------2--------2--4--5--4--2--------2--------|-
E-|3--2--0--0-2-3---3-2-0--0--2--3--2--0--0-2-3---3-2-0--|-
Suggest correction
Give kudos to tab author, rate the tab!
1 2 3 4 5
comments
print report bad tab
guest
Wanna post a correction for this tab? Suggest correction