Oops, an error
Loading. Please wait.

Juanito Tab

14 views 1 this week
no commentswrite comment
1 2 3 4 5
3 more votes to show rating
add to favorites
launch autoscroll
font size
0
reset
how to read this tab
guitar tuner
×
Best way to learn
"Juanito"
Autoscroll
slow
fast
+/-
esc
set tempo
stop
INTRO: RIFF 1

     [ch]Eb                     SOLb[/ch]
Eb|------------------------|------------------------|
Bb|------------------------|------------------------|
Gb|---------h-p------------|------------------------|
Db|--------6-7-6-----------|------5-----------------|
Ab|-----7---------7--------|----5-------------7-----|
Eb|--0---------------7--0--|--3------3--5--7-----7--|

[ch]Ab[/ch]                       [ch]Eb[/ch]                      X3
-------------------------|------------------------||
-------------------------|---------h-p------------||
-------7-----------------|--------6-7-6-----------||
-----7-------------7-----|-----7---------7-----7--||
-----7-------------7-----|-----7---------7-----7--||
---5------3--5--7-----7--|--0---------------7-----||

       En la tercera repetición entra el bajo y la cuarta:

     [ch]Eb                                   SOLb[/ch]
Eb|-------------------------------------|-----------------------|
Bb|-------------------------------------|-----------------------|
Gb|---p------p------p------p------p-----|-----------------------|
Db|--7-6----7-6----7-6----7-6----7-6----|------5----------------|
Ab|------7------7------7------7------7--|----5-------------7----|
Eb|-------------------------------------|--3------3--5--7-----7-|


[ch]Ab[/ch]                   [ch]Eb[/ch]                   X 3
--------------------|------------------------||
--------------------|------------------------||
--------------------|---------h-h------------||
------7-------------|--------6-7-6-----------||
----7-----h-p-h-----|-----7---------7-----7--||
--5------0-3-0-3/7--|--0---------------7-----||


  RIFF (simple)

1) [ch]Eb                              SOLb[/ch]
  Juanito de la esquina con su cara sucia, tiene nueve años
  [ch]Ab[/ch]            [ch]Eb[/ch]
  y ya sabe lo que es vivir
  [ch]Eb                            SOLb[/ch]
  Pocos dientes poca ropa pero igual se va de copas,
  [ch]Ab[/ch]           [ch]Eb[/ch]
  y un hueco por la nariz.

1)Juanito de la esquina tiene mucha hambre,
  y no tiene donde dormir
  por las noches junta diarios, papeles, y carton,
  y de día canta en un bus.

PUENTE RIFF 2
  [ch]B[/ch]     [ch]Ab[/ch]     RIFF 1)
  Hu... Hu.... Hu...
  [ch]B[/ch]     [ch]Ab[/ch]
  Hu... Hu....
  [ch]Eb     [ch]Ab            MIb[/ch]  MIb[/ch]
  Hu........Yeh, Yeh, Yeah

RIFF INTRO

A)Juanito de la esquina entre sus manos una bolsa plastica,
  no tiene idea ni de escribir,
  Juanito ya ni piensa en llegar a grande,
  ni siquiera en ser felíz.

A)Juanito de la esquina, sin padres ni caricias
  y de amigo un quiltro gris
  Día a día es pateado por la hipocresia
  y la burla del pobre ruín


  [ch]Eb        [ch]Ab   MIb[/ch]  MIb[/ch]
  Hu........Yeh, Yeh, Yeah       X4

  PUNTEO:
    [ch]Eb               [ch]Ab        MIb  MIb[/ch]            MIb[/ch]...
Eb|---------------h--p----------------------------|-------------|
Bb|-10b(11)--10-11-10---10---10(11)--10-11-10-11--|-----10-(11)-|
Gb|------------------12----12---------------------|--12---------|
Db|-----------------------------------------------|-------------|
Ab|-----------------------------------------------|-------------|
Eb|-----------------------------------------------|-------------|
no sé como sigue pero son unos hamer por ahí y por allá

RIFF 3              X 4
Eb|---------------------|
Bb|---------------------|
Gb|--7-7--6---4----4-6--|
Db|--5-5--5---5----5-5--|
Ab|---------------------|
Eb|---------------------|


RIFF 4 + RIFF 5  X 4
RIFF 4
   arpegiando  casi acustico
     [ch]B[/ch]                                [ch]Ab[/ch]
Eb|-----p------------------p-----|-----p---------------------p--|
Bb|----6-5----5----5---5--6-5----|----3-2-----2----2-----2--3-2-|
Gb|--------5---------5---------5-|---------2----------2---------|
Db|------------------------------|------------------------------|
Ab|-3------------3---------------|-0------------0---------------|
Eb|------------------------------|------------------------------|


RIFF5   DISTORCIÓN

-------------------------------|-------------------------------|
-------------------------------|-------------------------------|
-------------------------------|-------------------------------|
-------------------------------|-------------------------------|
-----------5------------5-7-5--|-----------5--------------5-7-5|
0-0-0-0-0--3--0-0-0-0-0-3-5-3--|0-0-0-0-0--3--0-0-0-0-0---3-5-3|


ahora
RIFF 4 + RIFF 1

y se quda pegado en

Eb|---------------------------------------------H.A.12---------|
Bb|----------------------------------------------------H.A.12--|
Gb|------------------------------------------------------------|
Db|----p----------p---------p-----------p----------------------|
Ab|-12-10------12-10-----12-10-------12-10---------------------|
Eb|-------12---------12---------12----------12-----------------|

                                             X 2
-------------------------------H.A.7---------|
--------------------------------------H.A.7--|
---p------p------p------p--------------------|
----6----7-6----7-6----7-6-------------------|
-------7------7------7------7----------------|
---------------------------------------------|

termina en MIb


Espero que la conozcan, un temaso underground (aunque ni tanto),
ojala revisenla por
que a mi se me corto la cinta del cassette en la que la tenía XD.
Suggest correction
Give kudos to tab author, rate the tab!
1 2 3 4 5
comments
print report bad tab
guest
You may want to rate the tab now too:
select rating
Wanna post a correction for this tab? Suggest correction