Oops, an error
Loading. Please wait.

Apaga La Tele Tab

27 views 1 this week
no commentswrite comment
1 2 3 4 5
3 more votes to show rating
add to favorites
launch autoscroll
font size
0
reset
how to read this tab
guitar tuner
Autoscroll
slow
fast
+/-
esc
set tempo
stop
Help us to improve Ultimate-Guitar.com Take our survey!
×
Un día escuche este tema y me hizo recordarla... lo busque para
sacarlo pero no estaba e hice mi primera transcripción. Se la
dedico a Susan, mi amoshita bella.


e------12-14-15-15-14-12-10-8--7-12-------11-12-11--------------
B--/12-------17-17-15-13-12-10-8-----8-10----------12-12-10-12--
G---------------------------------------------------------------
D---------------------------------------------------------------
A---------------------------------------------------------------
E---------------------------------------------------------------

e------12-14-15-15-14-12-10-8--7-12-------7-8-7-----------------
B--/12-------17-17-15-13-12-10-8-----8-10-------10-8-7----------
G------------------------------------------------------9--------
D---------------------------------------------------------------
A---------------------------------------------------------------
E---------------------------------------------------------------

Este arpegio se repite durante la mayoría de la canción.
e------------------7--------7---10------------------------------
B-----7---8---10-------10---------------------------------------
G-9-------------------------------------------------------------
D---9---9---9----9---9----9---9---------------------------------
A---------------------------------------------------------------
E---------------------------------------------------------------

En el resto de la canción se juegan también con los bicordes del
intro.  Bye bye!!!
Suggest correction
Give kudos to tab author, rate the tab!
1 2 3 4 5
comments
print report bad tab
guest
You may want to rate the tab now too:
select rating
Wanna post a correction for this tab? Suggest correction